ISO-10303-21;
HEADER;
FILE_DESCRIPTION (( 'STEP AP214' ),
    '1' );
FILE_NAME ('41566.step',
    '2024-04-04T09:32:52',
    ( '' ),
    ( '' ),
    'SwSTEP 2.0',
    'SolidWorks 2022',
    '' );
FILE_SCHEMA (( 'AUTOMOTIVE_DESIGN' ));
ENDSEC;

DATA;
#1 =( NAMED_UNIT ( * ) PLANE_ANGLE_UNIT ( ) SI_UNIT ( $, .RADIAN. ) );
#2 = DIRECTION ( 'NONE',  ( 3.327098416510788398E-15, 0.3382550599108817835, 0.9410544694355825746 ) ) ;
#3 = CIRCLE ( 'NONE', #34, 1.499999999999995781 ) ;
#4 = SURFACE_SIDE_STYLE ('',( #264 ) ) ;
#5 = VECTOR ( 'NONE', #303, 1000.000000000000114 ) ;
#6 = SHAPE_DEFINITION_REPRESENTATION ( #129, #198 ) ;
#7 = CARTESIAN_POINT ( 'NONE',  ( 8.554129280165676720E-15, 0.000000000000000000, 2.449999999999999734 ) ) ;
#8 = ADVANCED_FACE ( 'NONE', ( #197 ), #69, .T. ) ;
#9 = ORIENTED_EDGE ( 'NONE', *, *, #194, .T. ) ;
#10 = ORIENTED_EDGE ( 'NONE', *, *, #62, .T. ) ;
#11 = CARTESIAN_POINT ( 'NONE',  ( 0.000000000000000000, 0.000000000000000000, 0.000000000000000000 ) ) ;
#12 = CARTESIAN_POINT ( 'NONE',  ( 1.316288464743861212E-13, 1.499999999999991118, 37.69999999999999574 ) ) ;
#13 = DIRECTION ( 'NONE',  ( 0.000000000000000000, -1.000000000000000000, 0.000000000000000000 ) ) ;
#14 = PRESENTATION_LAYER_ASSIGNMENT (  '', '', ( #182 ) ) ;
#15 = PLANE ( 'NONE',  #63 ) ;
#16 = ORIENTED_EDGE ( 'NONE', *, *, #37, .F. ) ;
#17 = VERTEX_POINT ( 'NONE', #172 ) ;
#18 = DIRECTION ( 'NONE',  ( 0.000000000000000000, 1.000000000000000000, 0.000000000000000000 ) ) ;
#19 = UNCERTAINTY_MEASURE_WITH_UNIT (LENGTH_MEASURE( 1.000000000000000082E-05 ), #107, 'distance_accuracy_value', 'NONE');
#20 = CARTESIAN_POINT ( 'NONE',  ( 8.554129280165676720E-15, -3.000384657911015370E-16, 2.449999999999999734 ) ) ;
#21 = APPLICATION_PROTOCOL_DEFINITION ( 'draft international standard', 'automotive_design', 1998, #137 ) ;
#22 = DIRECTION ( 'NONE',  ( -3.491481338843133355E-15, 1.224646799147353207E-16, -1.000000000000000000 ) ) ;
#23 = SURFACE_STYLE_USAGE ( .BOTH. , #311 ) ;
#24 =( NAMED_UNIT ( * ) PLANE_ANGLE_UNIT ( ) SI_UNIT ( $, .RADIAN. ) );
#25 = DIRECTION ( 'NONE',  ( 4.275831445896958607E-31, 1.000000000000000000, 1.224646799147353207E-16 ) ) ;
#26 = FACE_OUTER_BOUND ( 'NONE', #276, .T. ) ;
#27 = SURFACE_STYLE_USAGE ( .BOTH. , #4 ) ;
#28 = DIRECTION ( 'NONE',  ( 3.285674118869262210E-15, -0.3382550599108819500, 0.9410544694355824635 ) ) ;
#29 = EDGE_CURVE ( 'NONE', #196, #17, #268, .T. ) ;
#30 = EDGE_LOOP ( 'NONE', ( #321, #267, #327, #218 ) ) ;
#31 = CARTESIAN_POINT ( 'NONE',  ( 1.836970198721018348E-16, -1.499999999999995781, -1.836970198721030920E-16 ) ) ;
#32 = ORIENTED_EDGE ( 'NONE', *, *, #250, .T. ) ;
#33 = CARTESIAN_POINT ( 'NONE',  ( -0.4999999999999911182, 6.123233995736763571E-17, 2.450000000000001510 ) ) ;
#34 = AXIS2_PLACEMENT_3D ( 'NONE', #133, #279, #181 ) ;
#35 = VERTEX_POINT ( 'NONE', #33 ) ;
#36 = VECTOR ( 'NONE', #2, 999.9999999999998863 ) ;
#37 = EDGE_CURVE ( 'NONE', #171, #269, #337, .T. ) ;
#38 = CARTESIAN_POINT ( 'NONE',  ( 1.353339361850223372E-14, 0.4999999999999996669, 2.449999999999999734 ) ) ;
#39 = AXIS2_PLACEMENT_3D ( 'NONE', #11, #119, #220 ) ;
#40 =( NAMED_UNIT ( * ) SI_UNIT ( $, .STERADIAN. ) SOLID_ANGLE_UNIT ( ) );
#41 = VERTEX_POINT ( 'NONE', #322 ) ;
#42 =( NAMED_UNIT ( * ) PLANE_ANGLE_UNIT ( ) SI_UNIT ( $, .RADIAN. ) );
#43 = ORIENTED_EDGE ( 'NONE', *, *, #118, .T. ) ;
#44 = MECHANICAL_DESIGN_GEOMETRIC_PRESENTATION_REPRESENTATION (  '', ( #287 ), #238 ) ;
#45 = DIRECTION ( 'NONE',  ( 1.000000000000000000, 0.000000000000000000, -3.469446951953615767E-15 ) ) ;
#46 = PRODUCT_DEFINITION_FORMATION_WITH_SPECIFIED_SOURCE ( 'ANY', '', #278, .NOT_KNOWN. ) ;
#47 = PLANE ( 'NONE',  #253 ) ;
#48 = EDGE_CURVE ( 'NONE', #246, #41, #109, .T. ) ;
#49 = PLANE ( 'NONE',  #155 ) ;
#50 = CARTESIAN_POINT ( 'NONE',  ( 0.000000000000000000, 0.000000000000000000, 0.000000000000000000 ) ) ;
#51 = FACE_OUTER_BOUND ( 'NONE', #57, .T. ) ;
#52 = CARTESIAN_POINT ( 'NONE',  ( 0.000000000000000000, 0.000000000000000000, 0.000000000000000000 ) ) ;
#53 = AXIS2_PLACEMENT_3D ( 'NONE', #263, #136, #237 ) ;
#54 = CARTESIAN_POINT ( 'NONE',  ( -0.4999999999999912292, 6.123233995736763571E-17, 2.450000000000001510 ) ) ;
#55 = EDGE_CURVE ( 'NONE', #334, #35, #323, .T. ) ;
#56 = DIRECTION ( 'NONE',  ( 1.000000000000000000, 0.000000000000000000, -3.469446951953616555E-15 ) ) ;
#57 = EDGE_LOOP ( 'NONE', ( #10, #266 ) ) ;
#58 = CYLINDRICAL_SURFACE ( 'NONE', #190, 1.499999999999995781 ) ;
#59 = ORIENTED_EDGE ( 'NONE', *, *, #249, .F. ) ;
#60 = DIRECTION ( 'NONE',  ( 0.000000000000000000, -1.000000000000000000, 0.000000000000000000 ) ) ;
#61 = ORIENTED_EDGE ( 'NONE', *, *, #65, .F. ) ;
#62 = EDGE_CURVE ( 'NONE', #196, #241, #259, .T. ) ;
#63 = AXIS2_PLACEMENT_3D ( 'NONE', #91, #124, #128 ) ;
#64 = SURFACE_STYLE_FILL_AREA ( #149 ) ;
#65 = EDGE_CURVE ( 'NONE', #171, #35, #112, .T. ) ;
#66 = ADVANCED_FACE ( 'NONE', ( #213 ), #165, .T. ) ;
#67 = PRESENTATION_STYLE_ASSIGNMENT (( #178 ) ) ;
#68 = CARTESIAN_POINT ( 'NONE',  ( 0.000000000000000000, 0.000000000000000000, 0.000000000000000000 ) ) ;
#69 = CONICAL_SURFACE ( 'NONE', #166, 0.5000000000000000000, 0.3450620389298189039 ) ;
#70 = ADVANCED_FACE ( 'NONE', ( #242 ), #127, .T. ) ;
#71 = DIRECTION ( 'NONE',  ( 3.491481338843133355E-15, -1.224646799147353207E-16, 1.000000000000000000 ) ) ;
#72 = MECHANICAL_DESIGN_GEOMETRIC_PRESENTATION_REPRESENTATION (  '', ( #182 ), #314 ) ;
#73 = LINE ( 'NONE', #310, #5 ) ;
#74 = SURFACE_STYLE_FILL_AREA ( #160 ) ;
#75 = CARTESIAN_POINT ( 'NONE',  ( 8.554129280165676720E-15, 0.4999999999999996669, 2.449999999999999734 ) ) ;
#76 = DIRECTION ( 'NONE',  ( -3.491481338843133355E-15, 1.224646799147353207E-16, -1.000000000000000000 ) ) ;
#77 = DIRECTION ( 'NONE',  ( 4.275831445896958607E-31, 1.000000000000000000, 1.224646799147353207E-16 ) ) ;
#78 = AXIS2_PLACEMENT_3D ( 'NONE', #50, #162, #306 ) ;
#79 = DIRECTION ( 'NONE',  ( 0.000000000000000000, 0.000000000000000000, 1.000000000000000000 ) ) ;
#80 = DIRECTION ( 'NONE',  ( 3.491481338843133355E-15, -1.224646799147353207E-16, 1.000000000000000000 ) ) ;
#81 = EDGE_LOOP ( 'NONE', ( #232, #43, #173, #59 ) ) ;
#82 = PRESENTATION_STYLE_ASSIGNMENT (( #27 ) ) ;
#83 = ORIENTED_EDGE ( 'NONE', *, *, #157, .T. ) ;
#84 = ORIENTED_EDGE ( 'NONE', *, *, #48, .F. ) ;
#85 = CLOSED_SHELL ( 'NONE', ( #271, #272, #90, #121, #265, #333, #8, #70 ) ) ;
#86 = ORIENTED_EDGE ( 'NONE', *, *, #188, .F. ) ;
#87 = VECTOR ( 'NONE', #212, 1000.000000000000000 ) ;
#88 = VERTEX_POINT ( 'NONE', #192 ) ;
#89 = AXIS2_PLACEMENT_3D ( 'NONE', #277, #204, #226 ) ;
#90 = ADVANCED_FACE ( 'NONE', ( #313 ), #58, .T. ) ;
#91 = CARTESIAN_POINT ( 'NONE',  ( 1.068957861474233931E-32, 0.4999999999999998890, 3.061616997868366609E-18 ) ) ;
#92 = AXIS2_PLACEMENT_3D ( 'NONE', #159, #22, #283 ) ;
#93 = COLOUR_RGB ( '',0.8980392156862745390, 0.9176470588235293713, 0.9294117647058823817 ) ;
#94 = FACE_OUTER_BOUND ( 'NONE', #120, .T. ) ;
#95 = EDGE_CURVE ( 'NONE', #293, #88, #163, .T. ) ;
#96 = EDGE_LOOP ( 'NONE', ( #320, #9, #132, #243 ) ) ;
#97 = SURFACE_SIDE_STYLE ('',( #64 ) ) ;
#98 = ORIENTED_EDGE ( 'NONE', *, *, #55, .T. ) ;
#99 = CARTESIAN_POINT ( 'NONE',  ( 1.826772859700932042E-14, -6.407456658907021581E-16, 5.232085417091802526 ) ) ;
#100 = UNCERTAINTY_MEASURE_WITH_UNIT (LENGTH_MEASURE( 1.000000000000000082E-05 ), #224, 'distance_accuracy_value', 'NONE');
#101 = STYLED_ITEM ( 'NONE', ( #342 ), #198 ) ;
#102 = FACE_OUTER_BOUND ( 'NONE', #126, .T. ) ;
#103 = DIRECTION ( 'NONE',  ( -3.491481338843133355E-15, 1.224646799147353207E-16, -1.000000000000000000 ) ) ;
#104 = CARTESIAN_POINT ( 'NONE',  ( 1.316288464743861212E-13, -4.616918432785521081E-15, 37.69999999999999574 ) ) ;
#105 = CIRCLE ( 'NONE', #138, 0.4999999999999996669 ) ;
#106 = DIRECTION ( 'NONE',  ( 1.000000000000000000, 0.000000000000000000, 0.000000000000000000 ) ) ;
#107 =( LENGTH_UNIT ( ) NAMED_UNIT ( * ) SI_UNIT ( .MILLI., .METRE. ) );
#108 = AXIS2_PLACEMENT_3D ( 'NONE', #326, #328, #45 ) ;
#109 = LINE ( 'NONE', #168, #274 ) ;
#110 = ADVANCED_FACE ( 'NONE', ( #26 ), #288, .F. ) ;
#111 = ORIENTED_EDGE ( 'NONE', *, *, #95, .F. ) ;
#112 = LINE ( 'NONE', #54, #295 ) ;
#113 = MANIFOLD_SOLID_BREP ( 'Corps-Déplacer/Copier1[1]', #85 ) ;
#114 = ORIENTED_EDGE ( 'NONE', *, *, #282, .F. ) ;
#115 = EDGE_LOOP ( 'NONE', ( #86, #16 ) ) ;
#116 = AXIS2_PLACEMENT_3D ( 'NONE', #285, #80, #236 ) ;
#117 = MECHANICAL_DESIGN_GEOMETRIC_PRESENTATION_REPRESENTATION (  '', ( #101 ), #245 ) ;
#118 = EDGE_CURVE ( 'NONE', #219, #41, #217, .T. ) ;
#119 = DIRECTION ( 'NONE',  ( 3.491481338843133355E-15, -0.000000000000000000, 1.000000000000000000 ) ) ;
#120 = EDGE_LOOP ( 'NONE', ( #148, #316, #199, #332 ) ) ;
#121 = ADVANCED_FACE ( 'NONE', ( #102 ), #47, .T. ) ;
#122 = FACE_OUTER_BOUND ( 'NONE', #30, .T. ) ;
#123 = CIRCLE ( 'NONE', #227, 1.499999999999996003 ) ;
#124 = DIRECTION ( 'NONE',  ( 3.491481338843133355E-15, -0.000000000000000000, 1.000000000000000000 ) ) ;
#125 =( LENGTH_UNIT ( ) NAMED_UNIT ( * ) SI_UNIT ( .MILLI., .METRE. ) );
#126 = EDGE_LOOP ( 'NONE', ( #153, #83 ) ) ;
#127 = CONICAL_SURFACE ( 'NONE', #331, 1.499999999999995781, 0.7853981633974508325 ) ;
#128 = DIRECTION ( 'NONE',  ( 1.000000000000000000, 0.000000000000000000, -3.491481338843133355E-15 ) ) ;
#129 = PRODUCT_DEFINITION_SHAPE ( 'NONE', 'NONE',  #215 ) ;
#130 = CARTESIAN_POINT ( 'NONE',  ( 1.316288464743861212E-13, -4.616918432785521081E-15, 37.69999999999999574 ) ) ;
#131 = EDGE_CURVE ( 'NONE', #35, #334, #105, .T. ) ;
#132 = ORIENTED_EDGE ( 'NONE', *, *, #164, .F. ) ;
#133 = CARTESIAN_POINT ( 'NONE',  ( 1.316288464743861212E-13, -4.616918432785521081E-15, 37.69999999999999574 ) ) ;
#134 = DIRECTION ( 'NONE',  ( 0.000000000000000000, 1.000000000000000000, 0.000000000000000000 ) ) ;
#135 = LINE ( 'NONE', #257, #201 ) ;
#136 = DIRECTION ( 'NONE',  ( -3.491481338843133355E-15, 0.000000000000000000, -1.000000000000000000 ) ) ;
#137 = APPLICATION_CONTEXT ( 'automotive_design' ) ;
#138 = AXIS2_PLACEMENT_3D ( 'NONE', #230, #186, #211 ) ;
#139 = APPLICATION_PROTOCOL_DEFINITION ( 'draft international standard', 'automotive_design', 1998, #234 ) ;
#140 = FILL_AREA_STYLE_COLOUR ( '', #93 ) ;
#141 = ORIENTED_EDGE ( 'NONE', *, *, #131, .F. ) ;
#142 = CARTESIAN_POINT ( 'NONE',  ( 8.554129280165676720E-15, 0.000000000000000000, 2.449999999999999734 ) ) ;
#143 = PRODUCT_DEFINITION_CONTEXT ( 'detailed design', #137, 'design' ) ;
#144 = ORIENTED_EDGE ( 'NONE', *, *, #195, .T. ) ;
#145 = ORIENTED_EDGE ( 'NONE', *, *, #157, .F. ) ;
#146 = AXIS2_PLACEMENT_3D ( 'NONE', #184, #79, #106 ) ;
#147 = PRESENTATION_LAYER_ASSIGNMENT (  '', '', ( #287 ) ) ;
#148 = ORIENTED_EDGE ( 'NONE', *, *, #118, .F. ) ;
#149 = FILL_AREA_STYLE ('',( #302 ) ) ;
#150 = CONICAL_SURFACE ( 'NONE', #330, 1.499999999999995781, 0.7853981633974508325 ) ;
#151 = CLOSED_SHELL ( 'NONE', ( #305, #66, #110, #324 ) ) ;
#152 = DIRECTION ( 'NONE',  ( -3.491481338843133355E-15, 1.224646799147353207E-16, -1.000000000000000000 ) ) ;
#153 = ORIENTED_EDGE ( 'NONE', *, *, #222, .T. ) ;
#154 = FACE_OUTER_BOUND ( 'NONE', #338, .T. ) ;
#155 = AXIS2_PLACEMENT_3D ( 'NONE', #206, #71, #158 ) ;
#156 = LINE ( 'NONE', #255, #298 ) ;
#157 = EDGE_CURVE ( 'NONE', #293, #246, #200, .T. ) ;
#158 = DIRECTION ( 'NONE',  ( -4.275831445896958607E-31, -1.000000000000000000, -1.224646799147353207E-16 ) ) ;
#159 = CARTESIAN_POINT ( 'NONE',  ( 8.554129280165676720E-15, -3.000384657911015370E-16, 2.449999999999999734 ) ) ;
#160 = FILL_AREA_STYLE ('',( #180 ) ) ;
#161 = AXIS2_PLACEMENT_3D ( 'NONE', #99, #207, #256 ) ;
#162 = DIRECTION ( 'NONE',  ( 3.491481338843133355E-15, -0.000000000000000000, 1.000000000000000000 ) ) ;
#163 = LINE ( 'NONE', #262, #36 ) ;
#164 = EDGE_CURVE ( 'NONE', #17, #219, #3, .T. ) ;
#165 = CYLINDRICAL_SURFACE ( 'NONE', #228, 0.4999999999999997780 ) ;
#166 = AXIS2_PLACEMENT_3D ( 'NONE', #244, #216, #60 ) ;
#167 = PRODUCT_CONTEXT ( 'NONE', #234, 'mechanical' ) ;
#168 = CARTESIAN_POINT ( 'NONE',  ( 8.554129280165676720E-15, -0.5000000000000003331, 2.449999999999999734 ) ) ;
#169 = ORIENTED_EDGE ( 'NONE', *, *, #194, .F. ) ;
#170 = COLOUR_RGB ( '',0.8980392156862745390, 0.9176470588235293713, 0.9294117647058823817 ) ;
#171 = VERTEX_POINT ( 'NONE', #260 ) ;
#172 = CARTESIAN_POINT ( 'NONE',  ( 7.494828753569771765E-14, 1.499999999999991118, 37.69999999999999574 ) ) ;
#173 = ORIENTED_EDGE ( 'NONE', *, *, #248, .F. ) ;
#174 = AXIS2_PLACEMENT_3D ( 'NONE', #223, #177, #229 ) ;
#175 = CYLINDRICAL_SURFACE ( 'NONE', #108, 0.4999999999999997780 ) ;
#176 =( NAMED_UNIT ( * ) PLANE_ANGLE_UNIT ( ) SI_UNIT ( $, .RADIAN. ) );
#177 = DIRECTION ( 'NONE',  ( -3.491481338843133355E-15, 1.224646799147359124E-16, -1.000000000000000000 ) ) ;
#178 = SURFACE_STYLE_USAGE ( .BOTH. , #97 ) ;
#179 = ORIENTED_EDGE ( 'NONE', *, *, #29, .T. ) ;
#180 = FILL_AREA_STYLE_COLOUR ( '', #170 ) ;
#181 = DIRECTION ( 'NONE',  ( 3.819167204710537237E-14, -1.000000000000000000, 0.000000000000000000 ) ) ;
#182 = STYLED_ITEM ( 'NONE', ( #67 ), #335 ) ;
#183 = CARTESIAN_POINT ( 'NONE',  ( 1.321525686752125943E-13, 1.199999999999987965, 38.00000000000000000 ) ) ;
#184 = CARTESIAN_POINT ( 'NONE',  ( 0.000000000000000000, 0.000000000000000000, 0.000000000000000000 ) ) ;
#185 = DIRECTION ( 'NONE',  ( -3.491481338843133355E-15, 1.224646799147353207E-16, -1.000000000000000000 ) ) ;
#186 = DIRECTION ( 'NONE',  ( 3.491481338843133355E-15, -0.000000000000000000, 1.000000000000000000 ) ) ;
#187 = DIRECTION ( 'NONE',  ( 0.000000000000000000, 1.000000000000000000, 0.000000000000000000 ) ) ;
#188 = EDGE_CURVE ( 'NONE', #269, #171, #239, .T. ) ;
#189 = CONICAL_SURFACE ( 'NONE', #89, 0.5000000000000000000, 0.3450620389298189039 ) ;
#190 = AXIS2_PLACEMENT_3D ( 'NONE', #52, #191, #77 ) ;
#191 = DIRECTION ( 'NONE',  ( -3.491481338843133355E-15, 1.224646799147353207E-16, -1.000000000000000000 ) ) ;
#192 = CARTESIAN_POINT ( 'NONE',  ( 1.826772859700932042E-14, 1.499999999999995337, 5.232085417091802526 ) ) ;
#193 = ORIENTED_EDGE ( 'NONE', *, *, #95, .T. ) ;
#194 = EDGE_CURVE ( 'NONE', #241, #219, #73, .T. ) ;
#195 = EDGE_CURVE ( 'NONE', #269, #334, #156, .T. ) ;
#196 = VERTEX_POINT ( 'NONE', #183 ) ;
#197 = FACE_OUTER_BOUND ( 'NONE', #209, .T. ) ;
#198 = ADVANCED_BREP_SHAPE_REPRESENTATION ( '41566', ( #113, #335, #146 ), #308 ) ;
#199 = ORIENTED_EDGE ( 'NONE', *, *, #249, .T. ) ;
#200 = CIRCLE ( 'NONE', #297, 0.5000000000000000000 ) ;
#201 = VECTOR ( 'NONE', #103, 1000.000000000000000 ) ;
#202 =( NAMED_UNIT ( * ) SI_UNIT ( $, .STERADIAN. ) SOLID_ANGLE_UNIT ( ) );
#203 = DIRECTION ( 'NONE',  ( 4.275831445896958607E-31, 1.000000000000000000, 1.224646799147353207E-16 ) ) ;
#204 = DIRECTION ( 'NONE',  ( 3.491481338843133355E-15, -1.224646799147353207E-16, 1.000000000000000000 ) ) ;
#205 = EDGE_LOOP ( 'NONE', ( #61, #296, #144, #141 ) ) ;
#206 = CARTESIAN_POINT ( 'NONE',  ( 1.326762908760390423E-13, -4.653657836759941941E-15, 38.00000000000000000 ) ) ;
#207 = DIRECTION ( 'NONE',  ( -3.491481338843133355E-15, 1.224646799147353207E-16, -1.000000000000000000 ) ) ;
#208 = CIRCLE ( 'NONE', #92, 0.5000000000000000000 ) ;
#209 = EDGE_LOOP ( 'NONE', ( #111, #290, #318, #32 ) ) ;
#210 = DIRECTION ( 'NONE',  ( 3.491481338843133355E-15, -0.000000000000000000, 1.000000000000000000 ) ) ;
#211 = DIRECTION ( 'NONE',  ( 1.000000000000000000, 0.000000000000000000, -3.469446951953616555E-15 ) ) ;
#212 = DIRECTION ( 'NONE',  ( -3.491481338843133355E-15, 1.224646799147353207E-16, -1.000000000000000000 ) ) ;
#213 = FACE_OUTER_BOUND ( 'NONE', #205, .T. ) ;
#214 = DIRECTION ( 'NONE',  ( 1.000000000000000000, 0.000000000000000000, -3.469446951953615767E-15 ) ) ;
#215 = PRODUCT_DEFINITION ( 'UNKNOWN', '', #46, #143 ) ;
#216 = DIRECTION ( 'NONE',  ( 3.491481338843133355E-15, -1.224646799147353207E-16, 1.000000000000000000 ) ) ;
#217 = LINE ( 'NONE', #31, #87 ) ;
#218 = ORIENTED_EDGE ( 'NONE', *, *, #195, .F. ) ;
#219 = VERTEX_POINT ( 'NONE', #281 ) ;
#220 = DIRECTION ( 'NONE',  ( 1.000000000000000000, 0.000000000000000000, -3.491481338843133355E-15 ) ) ;
#221 = DIRECTION ( 'NONE',  ( -2.468850131082258638E-15, 0.7071067811865493491, -0.7071067811865456854 ) ) ;
#222 = EDGE_CURVE ( 'NONE', #246, #293, #208, .T. ) ;
#223 = CARTESIAN_POINT ( 'NONE',  ( 1.316288464743861212E-13, -4.616918432785521081E-15, 37.69999999999999574 ) ) ;
#224 =( LENGTH_UNIT ( ) NAMED_UNIT ( * ) SI_UNIT ( .MILLI., .METRE. ) );
#225 = ORIENTED_EDGE ( 'NONE', *, *, #62, .F. ) ;
#226 = DIRECTION ( 'NONE',  ( 0.000000000000000000, -1.000000000000000000, 0.000000000000000000 ) ) ;
#227 = AXIS2_PLACEMENT_3D ( 'NONE', #312, #76, #18 ) ;
#228 = AXIS2_PLACEMENT_3D ( 'NONE', #142, #317, #214 ) ;
#229 = DIRECTION ( 'NONE',  ( -3.730349362740525976E-14, -1.000000000000000000, 0.000000000000000000 ) ) ;
#230 = CARTESIAN_POINT ( 'NONE',  ( 8.554129280165676720E-15, 0.000000000000000000, 2.449999999999999734 ) ) ;
#231 = UNCERTAINTY_MEASURE_WITH_UNIT (LENGTH_MEASURE( 1.000000000000000082E-05 ), #125, 'distance_accuracy_value', 'NONE');
#232 = ORIENTED_EDGE ( 'NONE', *, *, #164, .T. ) ;
#233 = FACE_OUTER_BOUND ( 'NONE', #96, .T. ) ;
#234 = APPLICATION_CONTEXT ( 'automotive_design' ) ;
#235 = DIRECTION ( 'NONE',  ( -3.491481338843133355E-15, 1.224646799147353207E-16, -1.000000000000000000 ) ) ;
#236 = DIRECTION ( 'NONE',  ( 0.000000000000000000, -1.000000000000000000, 0.000000000000000000 ) ) ;
#237 = DIRECTION ( 'NONE',  ( -1.000000000000000000, 0.000000000000000000, 3.491481338843133355E-15 ) ) ;
#238 =( GEOMETRIC_REPRESENTATION_CONTEXT ( 3 ) GLOBAL_UNCERTAINTY_ASSIGNED_CONTEXT ( ( #19 ) ) GLOBAL_UNIT_ASSIGNED_CONTEXT ( ( #107, #24, #291 ) ) REPRESENTATION_CONTEXT ( 'NONE', 'WORKASPACE' ) );
#239 = CIRCLE ( 'NONE', #78, 0.4999999999999998890 ) ;
#240 = DIRECTION ( 'NONE',  ( -3.491481338843133355E-15, 1.224646799147359124E-16, -1.000000000000000000 ) ) ;
#241 = VERTEX_POINT ( 'NONE', #284 ) ;
#242 = FACE_OUTER_BOUND ( 'NONE', #329, .T. ) ;
#243 = ORIENTED_EDGE ( 'NONE', *, *, #29, .F. ) ;
#244 = CARTESIAN_POINT ( 'NONE',  ( 8.554129280165676720E-15, -3.000384657911015370E-16, 2.449999999999999734 ) ) ;
#245 =( GEOMETRIC_REPRESENTATION_CONTEXT ( 3 ) GLOBAL_UNCERTAINTY_ASSIGNED_CONTEXT ( ( #309 ) ) GLOBAL_UNIT_ASSIGNED_CONTEXT ( ( #261, #1, #307 ) ) REPRESENTATION_CONTEXT ( 'NONE', 'WORKASPACE' ) );
#246 = VERTEX_POINT ( 'NONE', #341 ) ;
#247 = VECTOR ( 'NONE', #221, 1000.000000000000114 ) ;
#248 = EDGE_CURVE ( 'NONE', #88, #41, #292, .T. ) ;
#249 = EDGE_CURVE ( 'NONE', #17, #88, #135, .T. ) ;
#250 = EDGE_CURVE ( 'NONE', #41, #88, #123, .T. ) ;
#251 = ORIENTED_EDGE ( 'NONE', *, *, #131, .T. ) ;
#252 = FACE_OUTER_BOUND ( 'NONE', #115, .T. ) ;
#253 = AXIS2_PLACEMENT_3D ( 'NONE', #75, #235, #25 ) ;
#254 = CYLINDRICAL_SURFACE ( 'NONE', #286, 1.499999999999995781 ) ;
#255 = CARTESIAN_POINT ( 'NONE',  ( 0.5000000000000083267, 0.000000000000000000, 2.449999999999998401 ) ) ;
#256 = DIRECTION ( 'NONE',  ( 0.000000000000000000, 1.000000000000000000, 0.000000000000000000 ) ) ;
#257 = CARTESIAN_POINT ( 'NONE',  ( 6.413747168845419518E-31, 1.499999999999995781, 1.836970198721024511E-16 ) ) ;
#258 = DIRECTION ( 'NONE',  ( 3.491481338843133355E-15, -0.000000000000000000, 1.000000000000000000 ) ) ;
#259 = CIRCLE ( 'NONE', #116, 1.199999999999992628 ) ;
#260 = CARTESIAN_POINT ( 'NONE',  ( -0.4999999999999998890, 6.123233995736817805E-17, 1.745740669421566678E-15 ) ) ;
#261 =( LENGTH_UNIT ( ) NAMED_UNIT ( * ) SI_UNIT ( .MILLI., .METRE. ) );
#262 = CARTESIAN_POINT ( 'NONE',  ( 8.615361620123044295E-15, 0.4999999999999996669, 2.449999999999999734 ) ) ;
#263 = CARTESIAN_POINT ( 'NONE',  ( 8.554129280165676720E-15, 0.4999999999999996669, 2.449999999999999734 ) ) ;
#264 = SURFACE_STYLE_FILL_AREA ( #315 ) ;
#265 = ADVANCED_FACE ( 'NONE', ( #51 ), #49, .T. ) ;
#266 = ORIENTED_EDGE ( 'NONE', *, *, #289, .T. ) ;
#267 = ORIENTED_EDGE ( 'NONE', *, *, #65, .T. ) ;
#268 = LINE ( 'NONE', #12, #247 ) ;
#269 = VERTEX_POINT ( 'NONE', #339 ) ;
#270 = COLOUR_RGB ( '',0.8980392156862745390, 0.9176470588235293713, 0.9294117647058823817 ) ;
#271 = ADVANCED_FACE ( 'NONE', ( #233 ), #150, .T. ) ;
#272 = ADVANCED_FACE ( 'NONE', ( #154 ), #189, .T. ) ;
#273 = DIRECTION ( 'NONE',  ( 0.000000000000000000, 1.000000000000000000, 0.000000000000000000 ) ) ;
#274 = VECTOR ( 'NONE', #28, 1000.000000000000000 ) ;
#275 = CARTESIAN_POINT ( 'NONE',  ( 1.326762908760390423E-13, -4.653657836759941941E-15, 38.00000000000000000 ) ) ;
#276 = EDGE_LOOP ( 'NONE', ( #98, #251 ) ) ;
#277 = CARTESIAN_POINT ( 'NONE',  ( 8.554129280165676720E-15, -3.000384657911015370E-16, 2.449999999999999734 ) ) ;
#278 = PRODUCT ( '41566', '41566', '', ( #167 ) ) ;
#279 = DIRECTION ( 'NONE',  ( -3.491481338843133355E-15, 1.224646799147359124E-16, -1.000000000000000000 ) ) ;
#280 = CIRCLE ( 'NONE', #325, 1.199999999999992628 ) ;
#281 = CARTESIAN_POINT ( 'NONE',  ( 7.513198455556975726E-14, -1.500000000000000222, 37.69999999999999574 ) ) ;
#282 = EDGE_CURVE ( 'NONE', #219, #17, #300, .T. ) ;
#283 = DIRECTION ( 'NONE',  ( 0.000000000000000000, 1.000000000000000000, 0.000000000000000000 ) ) ;
#284 = CARTESIAN_POINT ( 'NONE',  ( 1.323178959930974906E-13, -1.199999999999997069, 38.00000000000000000 ) ) ;
#285 = CARTESIAN_POINT ( 'NONE',  ( 1.326762908760390423E-13, -4.653657836759941941E-15, 38.00000000000000000 ) ) ;
#286 = AXIS2_PLACEMENT_3D ( 'NONE', #68, #152, #203 ) ;
#287 = STYLED_ITEM ( 'NONE', ( #82 ), #113 ) ;
#288 = PLANE ( 'NONE',  #53 ) ;
#289 = EDGE_CURVE ( 'NONE', #241, #196, #280, .T. ) ;
#290 = ORIENTED_EDGE ( 'NONE', *, *, #222, .F. ) ;
#291 =( NAMED_UNIT ( * ) SI_UNIT ( $, .STERADIAN. ) SOLID_ANGLE_UNIT ( ) );
#292 = CIRCLE ( 'NONE', #161, 1.499999999999996003 ) ;
#293 = VERTEX_POINT ( 'NONE', #38 ) ;
#294 = ORIENTED_EDGE ( 'NONE', *, *, #248, .T. ) ;
#295 = VECTOR ( 'NONE', #343, 1000.000000000000000 ) ;
#296 = ORIENTED_EDGE ( 'NONE', *, *, #37, .T. ) ;
#297 = AXIS2_PLACEMENT_3D ( 'NONE', #20, #185, #134 ) ;
#298 = VECTOR ( 'NONE', #210, 1000.000000000000000 ) ;
#299 = CARTESIAN_POINT ( 'NONE',  ( 0.5000000000000082157, 0.000000000000000000, 2.449999999999998401 ) ) ;
#300 = CIRCLE ( 'NONE', #174, 1.499999999999995781 ) ;
#301 = DIRECTION ( 'NONE',  ( 3.491481338843133355E-15, -1.224646799147353207E-16, 1.000000000000000000 ) ) ;
#302 = FILL_AREA_STYLE_COLOUR ( '', #270 ) ;
#303 = DIRECTION ( 'NONE',  ( -2.382254525458710370E-15, -0.7071067811865491270, -0.7071067811865459074 ) ) ;
#304 = PRODUCT_RELATED_PRODUCT_CATEGORY ( 'part', '', ( #278 ) ) ;
#305 = ADVANCED_FACE ( 'NONE', ( #122 ), #175, .T. ) ;
#306 = DIRECTION ( 'NONE',  ( 1.000000000000000000, 0.000000000000000000, -3.491481338843133355E-15 ) ) ;
#307 =( NAMED_UNIT ( * ) SI_UNIT ( $, .STERADIAN. ) SOLID_ANGLE_UNIT ( ) );
#308 =( GEOMETRIC_REPRESENTATION_CONTEXT ( 3 ) GLOBAL_UNCERTAINTY_ASSIGNED_CONTEXT ( ( #100 ) ) GLOBAL_UNIT_ASSIGNED_CONTEXT ( ( #224, #176, #202 ) ) REPRESENTATION_CONTEXT ( 'NONE', 'WORKASPACE' ) );
#309 = UNCERTAINTY_MEASURE_WITH_UNIT (LENGTH_MEASURE( 1.000000000000000082E-05 ), #261, 'distance_accuracy_value', 'NONE');
#310 = CARTESIAN_POINT ( 'NONE',  ( 1.318125434942582113E-13, -1.500000000000000222, 37.69999999999999574 ) ) ;
#311 = SURFACE_SIDE_STYLE ('',( #74 ) ) ;
#312 = CARTESIAN_POINT ( 'NONE',  ( 1.826772859700932042E-14, -6.407456658907021581E-16, 5.232085417091802526 ) ) ;
#313 = FACE_OUTER_BOUND ( 'NONE', #81, .T. ) ;
#314 =( GEOMETRIC_REPRESENTATION_CONTEXT ( 3 ) GLOBAL_UNCERTAINTY_ASSIGNED_CONTEXT ( ( #231 ) ) GLOBAL_UNIT_ASSIGNED_CONTEXT ( ( #125, #42, #40 ) ) REPRESENTATION_CONTEXT ( 'NONE', 'WORKASPACE' ) );
#315 = FILL_AREA_STYLE ('',( #140 ) ) ;
#316 = ORIENTED_EDGE ( 'NONE', *, *, #282, .T. ) ;
#317 = DIRECTION ( 'NONE',  ( 3.491481338843133355E-15, -0.000000000000000000, 1.000000000000000000 ) ) ;
#318 = ORIENTED_EDGE ( 'NONE', *, *, #48, .T. ) ;
#319 = AXIS2_PLACEMENT_3D ( 'NONE', #7, #258, #56 ) ;
#320 = ORIENTED_EDGE ( 'NONE', *, *, #289, .F. ) ;
#321 = ORIENTED_EDGE ( 'NONE', *, *, #188, .T. ) ;
#322 = CARTESIAN_POINT ( 'NONE',  ( 7.513198455556983299E-14, -1.499999999999996669, 5.232085417091802526 ) ) ;
#323 = CIRCLE ( 'NONE', #319, 0.4999999999999996669 ) ;
#324 = ADVANCED_FACE ( 'NONE', ( #252 ), #15, .F. ) ;
#325 = AXIS2_PLACEMENT_3D ( 'NONE', #275, #301, #13 ) ;
#326 = CARTESIAN_POINT ( 'NONE',  ( 8.554129280165676720E-15, 0.000000000000000000, 2.449999999999999734 ) ) ;
#327 = ORIENTED_EDGE ( 'NONE', *, *, #55, .F. ) ;
#328 = DIRECTION ( 'NONE',  ( 3.491481338843133355E-15, -0.000000000000000000, 1.000000000000000000 ) ) ;
#329 = EDGE_LOOP ( 'NONE', ( #169, #225, #179, #114 ) ) ;
#330 = AXIS2_PLACEMENT_3D ( 'NONE', #130, #336, #273 ) ;
#331 = AXIS2_PLACEMENT_3D ( 'NONE', #104, #240, #187 ) ;
#332 = ORIENTED_EDGE ( 'NONE', *, *, #250, .F. ) ;
#333 = ADVANCED_FACE ( 'NONE', ( #94 ), #254, .T. ) ;
#334 = VERTEX_POINT ( 'NONE', #299 ) ;
#335 = MANIFOLD_SOLID_BREP ( 'Corps-Déplacer/Copier1[2]', #151 ) ;
#336 = DIRECTION ( 'NONE',  ( -3.491481338843133355E-15, 1.224646799147359124E-16, -1.000000000000000000 ) ) ;
#337 = CIRCLE ( 'NONE', #39, 0.4999999999999998890 ) ;
#338 = EDGE_LOOP ( 'NONE', ( #145, #193, #294, #84 ) ) ;
#339 = CARTESIAN_POINT ( 'NONE',  ( 0.4999999999999998890, 0.000000000000000000, -1.745740669421566283E-15 ) ) ;
#340 = PRESENTATION_LAYER_ASSIGNMENT (  '', '', ( #101 ) ) ;
#341 = CARTESIAN_POINT ( 'NONE',  ( 1.341092893858749857E-14, -0.5000000000000003331, 2.449999999999999734 ) ) ;
#342 = PRESENTATION_STYLE_ASSIGNMENT (( #23 ) ) ;
#343 = DIRECTION ( 'NONE',  ( 3.491481338843133355E-15, -0.000000000000000000, 1.000000000000000000 ) ) ;
ENDSEC;
END-ISO-10303-21;
