ISO-10303-21;
HEADER;
FILE_DESCRIPTION (( 'STEP AP214' ),
    '1' );
FILE_NAME ('41565.step',
    '2024-04-04T09:32:51',
    ( '' ),
    ( '' ),
    'SwSTEP 2.0',
    'SolidWorks 2022',
    '' );
FILE_SCHEMA (( 'AUTOMOTIVE_DESIGN' ));
ENDSEC;

DATA;
#1 = ORIENTED_EDGE ( 'NONE', *, *, #192, .F. ) ;
#2 = ADVANCED_FACE ( 'NONE', ( #95 ), #315, .T. ) ;
#3 = CONICAL_SURFACE ( 'NONE', #264, 0.4500000000000001776, 0.3450620389298189039 ) ;
#4 = ORIENTED_EDGE ( 'NONE', *, *, #70, .T. ) ;
#5 = VERTEX_POINT ( 'NONE', #246 ) ;
#6 = VERTEX_POINT ( 'NONE', #300 ) ;
#7 = AXIS2_PLACEMENT_3D ( 'NONE', #84, #290, #49 ) ;
#8 = PRODUCT_RELATED_PRODUCT_CATEGORY ( 'part', '', ( #161 ) ) ;
#9 = DIRECTION ( 'NONE',  ( 3.491481338843133355E-15, -1.224646799147353207E-16, 1.000000000000000000 ) ) ;
#10 = DIRECTION ( 'NONE',  ( -1.000000000000000000, 0.000000000000000000, 3.491481338843133355E-15 ) ) ;
#11 = EDGE_CURVE ( 'NONE', #160, #61, #163, .T. ) ;
#12 = SURFACE_STYLE_USAGE ( .BOTH. , #245 ) ;
#13 = DIRECTION ( 'NONE',  ( -2.468850131082296504E-15, 0.7071067811865386910, -0.7071067811865564545 ) ) ;
#14 =( LENGTH_UNIT ( ) NAMED_UNIT ( * ) SI_UNIT ( .MILLI., .METRE. ) );
#15 = SURFACE_SIDE_STYLE ('',( #289 ) ) ;
#16 = DIRECTION ( 'NONE',  ( -3.491481338843133355E-15, 1.224646799147353207E-16, -1.000000000000000000 ) ) ;
#17 = LINE ( 'NONE', #102, #159 ) ;
#18 = DIRECTION ( 'NONE',  ( -3.491481338843133355E-15, 1.224646799147353947E-16, -1.000000000000000000 ) ) ;
#19 =( GEOMETRIC_REPRESENTATION_CONTEXT ( 3 ) GLOBAL_UNCERTAINTY_ASSIGNED_CONTEXT ( ( #62 ) ) GLOBAL_UNIT_ASSIGNED_CONTEXT ( ( #14, #171, #221 ) ) REPRESENTATION_CONTEXT ( 'NONE', 'WORKASPACE' ) );
#20 = VECTOR ( 'NONE', #13, 1000.000000000000000 ) ;
#21 = FACE_OUTER_BOUND ( 'NONE', #31, .T. ) ;
#22 = EDGE_CURVE ( 'NONE', #60, #166, #273, .T. ) ;
#23 = ORIENTED_EDGE ( 'NONE', *, *, #85, .T. ) ;
#24 = FACE_OUTER_BOUND ( 'NONE', #91, .T. ) ;
#25 = EDGE_CURVE ( 'NONE', #269, #260, #167, .T. ) ;
#26 = DIRECTION ( 'NONE',  ( 4.275831445896958607E-31, 1.000000000000000000, 1.224646799147353207E-16 ) ) ;
#27 = COLOUR_RGB ( '',1.000000000000000000, 1.000000000000000000, 1.000000000000000000 ) ;
#28 = AXIS2_PLACEMENT_3D ( 'NONE', #257, #291, #288 ) ;
#29 = CONICAL_SURFACE ( 'NONE', #219, 1.499999999999993561, 0.7853981633974356225 ) ;
#30 = APPLICATION_CONTEXT ( 'automotive_design' ) ;
#31 = EDGE_LOOP ( 'NONE', ( #241, #271, #87, #295 ) ) ;
#32 = ORIENTED_EDGE ( 'NONE', *, *, #11, .F. ) ;
#33 = CLOSED_SHELL ( 'NONE', ( #137, #2, #120, #265, #134, #78, #243, #252 ) ) ;
#34 = ORIENTED_EDGE ( 'NONE', *, *, #223, .T. ) ;
#35 = ORIENTED_EDGE ( 'NONE', *, *, #85, .F. ) ;
#36 = EDGE_CURVE ( 'NONE', #5, #111, #334, .T. ) ;
#37 = DIRECTION ( 'NONE',  ( 1.000000000000000000, 0.000000000000000000, -3.491481338843132961E-15 ) ) ;
#38 = AXIS2_PLACEMENT_3D ( 'NONE', #306, #302, #278 ) ;
#39 = MECHANICAL_DESIGN_GEOMETRIC_PRESENTATION_REPRESENTATION (  '', ( #118 ), #107 ) ;
#40 = DIRECTION ( 'NONE',  ( -3.491481338843133355E-15, 1.224646799147353207E-16, -1.000000000000000000 ) ) ;
#41 = ADVANCED_FACE ( 'NONE', ( #169 ), #66, .F. ) ;
#42 = CARTESIAN_POINT ( 'NONE',  ( 7.332110811570584779E-15, -2.571758278209443436E-16, 2.100000000000000977 ) ) ;
#43 = DIRECTION ( 'NONE',  ( 3.491481338843133355E-15, -0.000000000000000000, 1.000000000000000000 ) ) ;
#44 = CARTESIAN_POINT ( 'NONE',  ( 1.753139009425637106E-14, 1.499999999999990896, 5.021189687946383096 ) ) ;
#45 =( LENGTH_UNIT ( ) NAMED_UNIT ( * ) SI_UNIT ( .MILLI., .METRE. ) );
#46 = DIRECTION ( 'NONE',  ( 3.491481338843133355E-15, -1.224646799147353207E-16, 1.000000000000000000 ) ) ;
#47 = DIRECTION ( 'NONE',  ( 0.000000000000000000, 1.000000000000000000, 0.000000000000000000 ) ) ;
#48 = FILL_AREA_STYLE ('',( #81 ) ) ;
#49 = DIRECTION ( 'NONE',  ( 1.000000000000000000, 0.000000000000000000, -3.854941057726238689E-15 ) ) ;
#50 = VECTOR ( 'NONE', #108, 1000.000000000000000 ) ;
#51 = DIRECTION ( 'NONE',  ( 0.000000000000000000, 1.000000000000000000, 0.000000000000000000 ) ) ;
#52 = ORIENTED_EDGE ( 'NONE', *, *, #270, .F. ) ;
#53 = CARTESIAN_POINT ( 'NONE',  ( 1.316288464743860707E-13, -4.616918432785519503E-15, 37.69999999999998153 ) ) ;
#54 =( NAMED_UNIT ( * ) PLANE_ANGLE_UNIT ( ) SI_UNIT ( $, .RADIAN. ) );
#55 = PRODUCT_DEFINITION ( 'UNKNOWN', '', #197, #150 ) ;
#56 =( LENGTH_UNIT ( ) NAMED_UNIT ( * ) SI_UNIT ( .MILLI., .METRE. ) );
#57 = CIRCLE ( 'NONE', #268, 0.4499999999999999001 ) ;
#58 =( GEOMETRIC_REPRESENTATION_CONTEXT ( 3 ) GLOBAL_UNCERTAINTY_ASSIGNED_CONTEXT ( ( #59 ) ) GLOBAL_UNIT_ASSIGNED_CONTEXT ( ( #45, #308, #172 ) ) REPRESENTATION_CONTEXT ( 'NONE', 'WORKASPACE' ) );
#59 = UNCERTAINTY_MEASURE_WITH_UNIT (LENGTH_MEASURE( 1.000000000000000082E-05 ), #45, 'distance_accuracy_value', 'NONE');
#60 = VERTEX_POINT ( 'NONE', #147 ) ;
#61 = VERTEX_POINT ( 'NONE', #44 ) ;
#62 = UNCERTAINTY_MEASURE_WITH_UNIT (LENGTH_MEASURE( 1.000000000000000082E-05 ), #14, 'distance_accuracy_value', 'NONE');
#63 = EDGE_LOOP ( 'NONE', ( #89, #293 ) ) ;
#64 = AXIS2_PLACEMENT_3D ( 'NONE', #42, #277, #331 ) ;
#65 = ORIENTED_EDGE ( 'NONE', *, *, #200, .T. ) ;
#66 = PLANE ( 'NONE',  #248 ) ;
#67 = DIRECTION ( 'NONE',  ( 0.000000000000000000, 1.000000000000000000, 0.000000000000000000 ) ) ;
#68 = MANIFOLD_SOLID_BREP ( 'Corps-Déplacer/Copier1[2]', #236 ) ;
#69 = AXIS2_PLACEMENT_3D ( 'NONE', #275, #117, #67 ) ;
#70 = EDGE_CURVE ( 'NONE', #138, #6, #92, .T. ) ;
#71 = PRESENTATION_STYLE_ASSIGNMENT (( #304 ) ) ;
#72 = CARTESIAN_POINT ( 'NONE',  ( 7.332110811570584779E-15, -2.571758278209443436E-16, 2.100000000000000977 ) ) ;
#73 = DIRECTION ( 'NONE',  ( 3.491481338843133355E-15, -0.000000000000000000, 1.000000000000000000 ) ) ;
#74 = CARTESIAN_POINT ( 'NONE',  ( 1.318125434942581860E-13, -1.499999999999998002, 37.69999999999998153 ) ) ;
#75 = CIRCLE ( 'NONE', #178, 1.499999999999991562 ) ;
#76 = CARTESIAN_POINT ( 'NONE',  ( 1.836970198721015636E-16, -1.499999999999993561, -1.836970198721028208E-16 ) ) ;
#77 = CARTESIAN_POINT ( 'NONE',  ( 1.255115351583034453E-14, 0.4499999999999999001, 2.100000000000000977 ) ) ;
#78 = ADVANCED_FACE ( 'NONE', ( #121 ), #96, .T. ) ;
#79 = APPLICATION_PROTOCOL_DEFINITION ( 'draft international standard', 'automotive_design', 1998, #88 ) ;
#80 = CARTESIAN_POINT ( 'NONE',  ( 1.316288464743860707E-13, -4.616918432785519503E-15, 37.69999999999998153 ) ) ;
#81 = FILL_AREA_STYLE_COLOUR ( '', #124 ) ;
#82 = LINE ( 'NONE', #154, #141 ) ;
#83 = FACE_OUTER_BOUND ( 'NONE', #139, .T. ) ;
#84 = CARTESIAN_POINT ( 'NONE',  ( 7.332110811570584779E-15, 0.000000000000000000, 2.100000000000000977 ) ) ;
#85 = EDGE_CURVE ( 'NONE', #166, #60, #263, .T. ) ;
#86 = MECHANICAL_DESIGN_GEOMETRIC_PRESENTATION_REPRESENTATION (  '', ( #177 ), #301 ) ;
#87 = ORIENTED_EDGE ( 'NONE', *, *, #208, .F. ) ;
#88 = APPLICATION_CONTEXT ( 'automotive_design' ) ;
#89 = ORIENTED_EDGE ( 'NONE', *, *, #100, .F. ) ;
#90 = EDGE_LOOP ( 'NONE', ( #35, #217, #156, #1 ) ) ;
#91 = EDGE_LOOP ( 'NONE', ( #242, #114, #128, #235 ) ) ;
#92 = CIRCLE ( 'NONE', #144, 0.4499999999999999001 ) ;
#93 = ORIENTED_EDGE ( 'NONE', *, *, #109, .T. ) ;
#94 = DIRECTION ( 'NONE',  ( 4.275831445896958607E-31, 1.000000000000000000, 1.224646799147353207E-16 ) ) ;
#95 = FACE_OUTER_BOUND ( 'NONE', #90, .T. ) ;
#96 = CYLINDRICAL_SURFACE ( 'NONE', #281, 1.499999999999993561 ) ;
#97 = DIRECTION ( 'NONE',  ( -3.491481338843133355E-15, 1.224646799147353207E-16, -1.000000000000000000 ) ) ;
#98 = DIRECTION ( 'NONE',  ( 1.000000000000000000, 0.000000000000000000, 0.000000000000000000 ) ) ;
#99 = DIRECTION ( 'NONE',  ( 3.491481338843133355E-15, -0.000000000000000000, 1.000000000000000000 ) ) ;
#100 = EDGE_CURVE ( 'NONE', #111, #5, #57, .T. ) ;
#101 = LINE ( 'NONE', #76, #327 ) ;
#102 = CARTESIAN_POINT ( 'NONE',  ( 7.387219917532215280E-15, 0.4499999999999999001, 2.100000000000000977 ) ) ;
#103 = CARTESIAN_POINT ( 'NONE',  ( 1.321525686752125691E-13, 1.199999999999981082, 38.00000000000000000 ) ) ;
#104 = SURFACE_SIDE_STYLE ('',( #191 ) ) ;
#105 = ORIENTED_EDGE ( 'NONE', *, *, #307, .T. ) ;
#106 = MECHANICAL_DESIGN_GEOMETRIC_PRESENTATION_REPRESENTATION (  '', ( #131 ), #19 ) ;
#107 =( GEOMETRIC_REPRESENTATION_CONTEXT ( 3 ) GLOBAL_UNCERTAINTY_ASSIGNED_CONTEXT ( ( #286 ) ) GLOBAL_UNIT_ASSIGNED_CONTEXT ( ( #284, #126, #279 ) ) REPRESENTATION_CONTEXT ( 'NONE', 'WORKASPACE' ) );
#108 = DIRECTION ( 'NONE',  ( 3.285674118869262210E-15, -0.3382550599108819500, 0.9410544694355824635 ) ) ;
#109 = EDGE_CURVE ( 'NONE', #269, #333, #335, .T. ) ;
#110 = CONICAL_SURFACE ( 'NONE', #258, 1.499999999999993561, 0.7853981633974356225 ) ;
#111 = VERTEX_POINT ( 'NONE', #326 ) ;
#112 = VERTEX_POINT ( 'NONE', #262 ) ;
#113 = ORIENTED_EDGE ( 'NONE', *, *, #216, .T. ) ;
#114 = ORIENTED_EDGE ( 'NONE', *, *, #216, .F. ) ;
#115 = AXIS2_PLACEMENT_3D ( 'NONE', #210, #99, #181 ) ;
#116 = DIRECTION ( 'NONE',  ( 0.000000000000000000, -1.000000000000000000, 0.000000000000000000 ) ) ;
#117 = DIRECTION ( 'NONE',  ( -3.491481338843133355E-15, 1.224646799147353207E-16, -1.000000000000000000 ) ) ;
#118 = STYLED_ITEM ( 'NONE', ( #71 ), #254 ) ;
#119 = PRESENTATION_STYLE_ASSIGNMENT (( #12 ) ) ;
#120 = ADVANCED_FACE ( 'NONE', ( #83 ), #183, .T. ) ;
#121 = FACE_OUTER_BOUND ( 'NONE', #136, .T. ) ;
#122 = DIRECTION ( 'NONE',  ( 0.000000000000000000, 0.000000000000000000, 1.000000000000000000 ) ) ;
#123 = DIRECTION ( 'NONE',  ( 0.000000000000000000, -1.000000000000000000, 0.000000000000000000 ) ) ;
#124 = COLOUR_RGB ( '',1.000000000000000000, 1.000000000000000000, 1.000000000000000000 ) ;
#125 = DIRECTION ( 'NONE',  ( -3.819167204710539130E-14, -1.000000000000000000, 0.000000000000000000 ) ) ;
#126 =( NAMED_UNIT ( * ) PLANE_ANGLE_UNIT ( ) SI_UNIT ( $, .RADIAN. ) );
#127 = DIRECTION ( 'NONE',  ( -3.491481338843133355E-15, 1.224646799147353207E-16, -1.000000000000000000 ) ) ;
#128 = ORIENTED_EDGE ( 'NONE', *, *, #230, .T. ) ;
#129 = PLANE ( 'NONE',  #240 ) ;
#130 = DIRECTION ( 'NONE',  ( 3.327098416510788398E-15, 0.3382550599108817835, 0.9410544694355825746 ) ) ;
#131 = STYLED_ITEM ( 'NONE', ( #119 ), #68 ) ;
#132 = VECTOR ( 'NONE', #16, 1000.000000000000000 ) ;
#133 = CYLINDRICAL_SURFACE ( 'NONE', #298, 0.4499999999999999001 ) ;
#134 = ADVANCED_FACE ( 'NONE', ( #187 ), #229, .T. ) ;
#135 = VECTOR ( 'NONE', #43, 1000.000000000000000 ) ;
#136 = EDGE_LOOP ( 'NONE', ( #52, #165, #65, #32 ) ) ;
#137 = ADVANCED_FACE ( 'NONE', ( #21 ), #29, .T. ) ;
#138 = VERTEX_POINT ( 'NONE', #149 ) ;
#139 = EDGE_LOOP ( 'NONE', ( #296, #299, #190, #195 ) ) ;
#140 = DIRECTION ( 'NONE',  ( -3.491481338843133355E-15, 0.000000000000000000, -1.000000000000000000 ) ) ;
#141 = VECTOR ( 'NONE', #287, 1000.000000000000000 ) ;
#142 = DIRECTION ( 'NONE',  ( 1.000000000000000000, 0.000000000000000000, -3.491481338843132961E-15 ) ) ;
#143 = DIRECTION ( 'NONE',  ( -2.382254525458748630E-15, -0.7071067811865383579, -0.7071067811865565655 ) ) ;
#144 = AXIS2_PLACEMENT_3D ( 'NONE', #175, #203, #325 ) ;
#145 = AXIS2_PLACEMENT_3D ( 'NONE', #153, #122, #98 ) ;
#146 = CARTESIAN_POINT ( 'NONE',  ( 7.476381530419324945E-14, -1.499999999999998002, 37.69999999999998153 ) ) ;
#147 = CARTESIAN_POINT ( 'NONE',  ( 1.243175045291347713E-14, -0.4500000000000003997, 2.100000000000000977 ) ) ;
#148 = DIRECTION ( 'NONE',  ( 3.491481338843133355E-15, -1.224646799147353207E-16, 1.000000000000000000 ) ) ;
#149 = CARTESIAN_POINT ( 'NONE',  ( 0.4500000000000071720, 0.000000000000000000, 2.099999999999999645 ) ) ;
#150 = PRODUCT_DEFINITION_CONTEXT ( 'detailed design', #88, 'design' ) ;
#151 = DIRECTION ( 'NONE',  ( 1.000000000000000000, 0.000000000000000000, -3.491481338843133355E-15 ) ) ;
#152 = CARTESIAN_POINT ( 'NONE',  ( 0.000000000000000000, 0.000000000000000000, 0.000000000000000000 ) ) ;
#153 = CARTESIAN_POINT ( 'NONE',  ( 0.000000000000000000, 0.000000000000000000, 0.000000000000000000 ) ) ;
#154 = CARTESIAN_POINT ( 'NONE',  ( -0.4499999999999925726, 5.510910596163087707E-17, 2.100000000000002753 ) ) ;
#155 = DIRECTION ( 'NONE',  ( 1.000000000000000000, 0.000000000000000000, -3.854941057726238689E-15 ) ) ;
#156 = ORIENTED_EDGE ( 'NONE', *, *, #213, .T. ) ;
#157 = CARTESIAN_POINT ( 'NONE',  ( 1.753139009425637106E-14, -6.149183879255234403E-16, 5.021189687946383096 ) ) ;
#158 = EDGE_CURVE ( 'NONE', #166, #61, #17, .T. ) ;
#159 = VECTOR ( 'NONE', #130, 999.9999999999998863 ) ;
#160 = VERTEX_POINT ( 'NONE', #234 ) ;
#161 = PRODUCT ( '41565', '41565', '', ( #232 ) ) ;
#162 = ORIENTED_EDGE ( 'NONE', *, *, #36, .T. ) ;
#163 = CIRCLE ( 'NONE', #38, 1.499999999999991562 ) ;
#164 = AXIS2_PLACEMENT_3D ( 'NONE', #256, #18, #125 ) ;
#165 = ORIENTED_EDGE ( 'NONE', *, *, #330, .T. ) ;
#166 = VERTEX_POINT ( 'NONE', #77 ) ;
#167 = LINE ( 'NONE', #74, #168 ) ;
#168 = VECTOR ( 'NONE', #143, 1000.000000000000114 ) ;
#169 = FACE_OUTER_BOUND ( 'NONE', #244, .T. ) ;
#170 = PRESENTATION_LAYER_ASSIGNMENT (  '', '', ( #177 ) ) ;
#171 =( NAMED_UNIT ( * ) PLANE_ANGLE_UNIT ( ) SI_UNIT ( $, .RADIAN. ) );
#172 =( NAMED_UNIT ( * ) SI_UNIT ( $, .STERADIAN. ) SOLID_ANGLE_UNIT ( ) );
#173 = DIRECTION ( 'NONE',  ( 0.000000000000000000, 1.000000000000000000, 0.000000000000000000 ) ) ;
#174 = ADVANCED_FACE ( 'NONE', ( #336 ), #133, .T. ) ;
#175 = CARTESIAN_POINT ( 'NONE',  ( 7.332110811570584779E-15, 0.000000000000000000, 2.100000000000000977 ) ) ;
#176 = PRESENTATION_LAYER_ASSIGNMENT (  '', '', ( #131 ) ) ;
#177 = STYLED_ITEM ( 'NONE', ( #340 ), #184 ) ;
#178 = AXIS2_PLACEMENT_3D ( 'NONE', #157, #97, #332 ) ;
#179 = FILL_AREA_STYLE_COLOUR ( '', #224 ) ;
#180 = CARTESIAN_POINT ( 'NONE',  ( 1.326762908760390423E-13, -4.653657836759941941E-15, 38.00000000000000000 ) ) ;
#181 = DIRECTION ( 'NONE',  ( 1.000000000000000000, 0.000000000000000000, -3.854941057726238689E-15 ) ) ;
#182 = CARTESIAN_POINT ( 'NONE',  ( 1.316288464743860707E-13, 1.499999999999988898, 37.69999999999998153 ) ) ;
#183 = CYLINDRICAL_SURFACE ( 'NONE', #231, 1.499999999999993561 ) ;
#184 = MANIFOLD_SOLID_BREP ( 'Corps-Déplacer/Copier1[1]', #33 ) ;
#185 = APPLICATION_PROTOCOL_DEFINITION ( 'draft international standard', 'automotive_design', 1998, #30 ) ;
#186 = ADVANCED_FACE ( 'NONE', ( #238 ), #311, .T. ) ;
#187 = FACE_OUTER_BOUND ( 'NONE', #341, .T. ) ;
#188 = CIRCLE ( 'NONE', #7, 0.4499999999999999001 ) ;
#189 = DIRECTION ( 'NONE',  ( 4.275831445896958607E-31, 1.000000000000000000, 1.224646799147353207E-16 ) ) ;
#190 = ORIENTED_EDGE ( 'NONE', *, *, #213, .F. ) ;
#191 = SURFACE_STYLE_FILL_AREA ( #48 ) ;
#192 = EDGE_CURVE ( 'NONE', #60, #160, #206, .T. ) ;
#193 = PRESENTATION_LAYER_ASSIGNMENT (  '', '', ( #118 ) ) ;
#194 = ORIENTED_EDGE ( 'NONE', *, *, #22, .F. ) ;
#195 = ORIENTED_EDGE ( 'NONE', *, *, #200, .F. ) ;
#196 = AXIS2_PLACEMENT_3D ( 'NONE', #72, #40, #173 ) ;
#197 = PRODUCT_DEFINITION_FORMATION_WITH_SPECIFIED_SOURCE ( 'ANY', '', #161, .NOT_KNOWN. ) ;
#198 = ORIENTED_EDGE ( 'NONE', *, *, #307, .F. ) ;
#199 = CARTESIAN_POINT ( 'NONE',  ( 1.326762908760390423E-13, -4.653657836759941941E-15, 38.00000000000000000 ) ) ;
#200 = EDGE_CURVE ( 'NONE', #112, #61, #214, .T. ) ;
#201 = DIRECTION ( 'NONE',  ( 3.491481338843133355E-15, -0.000000000000000000, 1.000000000000000000 ) ) ;
#202 = AXIS2_PLACEMENT_3D ( 'NONE', #337, #73, #151 ) ;
#203 = DIRECTION ( 'NONE',  ( 3.491481338843133355E-15, -0.000000000000000000, 1.000000000000000000 ) ) ;
#204 = FACE_OUTER_BOUND ( 'NONE', #220, .T. ) ;
#205 = DIRECTION ( 'NONE',  ( 0.000000000000000000, -1.000000000000000000, 0.000000000000000000 ) ) ;
#206 = LINE ( 'NONE', #343, #50 ) ;
#207 = DIRECTION ( 'NONE',  ( -3.491481338843133355E-15, 1.224646799147353207E-16, -1.000000000000000000 ) ) ;
#208 = EDGE_CURVE ( 'NONE', #112, #260, #283, .T. ) ;
#209 = DIRECTION ( 'NONE',  ( -3.491481338843133355E-15, 1.224646799147353947E-16, -1.000000000000000000 ) ) ;
#210 = CARTESIAN_POINT ( 'NONE',  ( 7.332110811570584779E-15, 0.000000000000000000, 2.100000000000000977 ) ) ;
#211 = AXIS2_PLACEMENT_3D ( 'NONE', #272, #201, #37 ) ;
#212 = ORIENTED_EDGE ( 'NONE', *, *, #158, .F. ) ;
#213 = EDGE_CURVE ( 'NONE', #61, #160, #75, .T. ) ;
#214 = LINE ( 'NONE', #318, #132 ) ;
#215 = EDGE_LOOP ( 'NONE', ( #239, #105, #218, #321 ) ) ;
#216 = EDGE_CURVE ( 'NONE', #333, #269, #319, .T. ) ;
#217 = ORIENTED_EDGE ( 'NONE', *, *, #158, .T. ) ;
#218 = ORIENTED_EDGE ( 'NONE', *, *, #70, .F. ) ;
#219 = AXIS2_PLACEMENT_3D ( 'NONE', #253, #313, #51 ) ;
#220 = EDGE_LOOP ( 'NONE', ( #212, #194, #317, #322 ) ) ;
#221 =( NAMED_UNIT ( * ) SI_UNIT ( $, .STERADIAN. ) SOLID_ANGLE_UNIT ( ) );
#222 = DIRECTION ( 'NONE',  ( -3.491481338843133355E-15, 1.224646799147353207E-16, -1.000000000000000000 ) ) ;
#223 = EDGE_CURVE ( 'NONE', #111, #138, #305, .T. ) ;
#224 = COLOUR_RGB ( '',1.000000000000000000, 1.000000000000000000, 1.000000000000000000 ) ;
#225 = FILL_AREA_STYLE_COLOUR ( '', #27 ) ;
#226 = FACE_OUTER_BOUND ( 'NONE', #63, .T. ) ;
#227 = CARTESIAN_POINT ( 'NONE',  ( -1.514188661106529085E-30, 0.000000000000000000, -4.336808689942017736E-16 ) ) ;
#228 = FACE_OUTER_BOUND ( 'NONE', #266, .T. ) ;
#229 = PLANE ( 'NONE',  #28 ) ;
#230 = EDGE_CURVE ( 'NONE', #333, #112, #261, .T. ) ;
#231 = AXIS2_PLACEMENT_3D ( 'NONE', #152, #127, #26 ) ;
#232 = PRODUCT_CONTEXT ( 'NONE', #30, 'mechanical' ) ;
#233 = DIRECTION ( 'NONE',  ( -3.491481338843133355E-15, 1.224646799147353947E-16, -1.000000000000000000 ) ) ;
#234 = CARTESIAN_POINT ( 'NONE',  ( 7.476381530419328731E-14, -1.499999999999992228, 5.021189687946383096 ) ) ;
#235 = ORIENTED_EDGE ( 'NONE', *, *, #330, .F. ) ;
#236 = CLOSED_SHELL ( 'NONE', ( #174, #186, #41, #259 ) ) ;
#237 = PRODUCT_DEFINITION_SHAPE ( 'NONE', 'NONE',  #55 ) ;
#238 = FACE_OUTER_BOUND ( 'NONE', #324, .T. ) ;
#239 = ORIENTED_EDGE ( 'NONE', *, *, #100, .T. ) ;
#240 = AXIS2_PLACEMENT_3D ( 'NONE', #280, #309, #189 ) ;
#241 = ORIENTED_EDGE ( 'NONE', *, *, #109, .F. ) ;
#242 = ORIENTED_EDGE ( 'NONE', *, *, #25, .F. ) ;
#243 = ADVANCED_FACE ( 'NONE', ( #204 ), #3, .T. ) ;
#244 = EDGE_LOOP ( 'NONE', ( #4, #320 ) ) ;
#245 = SURFACE_SIDE_STYLE ('',( #249 ) ) ;
#246 = CARTESIAN_POINT ( 'NONE',  ( -0.4499999999999999001, 5.510910596163133313E-17, 1.137485733485207842E-15 ) ) ;
#247 = SHAPE_DEFINITION_REPRESENTATION ( #237, #254 ) ;
#248 = AXIS2_PLACEMENT_3D ( 'NONE', #328, #140, #10 ) ;
#249 = SURFACE_STYLE_FILL_AREA ( #251 ) ;
#250 = DIRECTION ( 'NONE',  ( 3.907985046680550391E-14, -1.000000000000000000, 0.000000000000000000 ) ) ;
#251 = FILL_AREA_STYLE ('',( #225 ) ) ;
#252 = ADVANCED_FACE ( 'NONE', ( #24 ), #110, .T. ) ;
#253 = CARTESIAN_POINT ( 'NONE',  ( 1.316288464743860707E-13, -4.616918432785519503E-15, 37.69999999999998153 ) ) ;
#254 = ADVANCED_BREP_SHAPE_REPRESENTATION ( '41565', ( #184, #68, #145 ), #58 ) ;
#255 = FILL_AREA_STYLE ('',( #179 ) ) ;
#256 = CARTESIAN_POINT ( 'NONE',  ( 1.316288464743860707E-13, -4.616918432785519503E-15, 37.69999999999998153 ) ) ;
#257 = CARTESIAN_POINT ( 'NONE',  ( 1.326762908760390423E-13, -4.653657836759941941E-15, 38.00000000000000000 ) ) ;
#258 = AXIS2_PLACEMENT_3D ( 'NONE', #80, #209, #47 ) ;
#259 = ADVANCED_FACE ( 'NONE', ( #226 ), #339, .F. ) ;
#260 = VERTEX_POINT ( 'NONE', #146 ) ;
#261 = LINE ( 'NONE', #182, #20 ) ;
#262 = CARTESIAN_POINT ( 'NONE',  ( 7.458011828432122246E-14, 1.499999999999988898, 37.69999999999998153 ) ) ;
#263 = CIRCLE ( 'NONE', #196, 0.4500000000000001776 ) ;
#264 = AXIS2_PLACEMENT_3D ( 'NONE', #285, #46, #123 ) ;
#265 = ADVANCED_FACE ( 'NONE', ( #228 ), #129, .T. ) ;
#266 = EDGE_LOOP ( 'NONE', ( #267, #23 ) ) ;
#267 = ORIENTED_EDGE ( 'NONE', *, *, #22, .T. ) ;
#268 = AXIS2_PLACEMENT_3D ( 'NONE', #227, #282, #142 ) ;
#269 = VERTEX_POINT ( 'NONE', #314 ) ;
#270 = EDGE_CURVE ( 'NONE', #260, #160, #101, .T. ) ;
#271 = ORIENTED_EDGE ( 'NONE', *, *, #25, .T. ) ;
#272 = CARTESIAN_POINT ( 'NONE',  ( -1.514188661106529085E-30, 0.000000000000000000, -4.336808689942017736E-16 ) ) ;
#273 = CIRCLE ( 'NONE', #69, 0.4500000000000001776 ) ;
#274 = AXIS2_PLACEMENT_3D ( 'NONE', #199, #9, #116 ) ;
#275 = CARTESIAN_POINT ( 'NONE',  ( 7.332110811570584779E-15, -2.571758278209443436E-16, 2.100000000000000977 ) ) ;
#276 = EDGE_CURVE ( 'NONE', #6, #138, #188, .T. ) ;
#277 = DIRECTION ( 'NONE',  ( 3.491481338843133355E-15, -1.224646799147353207E-16, 1.000000000000000000 ) ) ;
#278 = DIRECTION ( 'NONE',  ( 0.000000000000000000, 1.000000000000000000, 0.000000000000000000 ) ) ;
#279 =( NAMED_UNIT ( * ) SI_UNIT ( $, .STERADIAN. ) SOLID_ANGLE_UNIT ( ) );
#280 = CARTESIAN_POINT ( 'NONE',  ( 7.332110811570584779E-15, 0.4499999999999999001, 2.100000000000000977 ) ) ;
#281 = AXIS2_PLACEMENT_3D ( 'NONE', #303, #222, #94 ) ;
#282 = DIRECTION ( 'NONE',  ( 3.491481338843133355E-15, -0.000000000000000000, 1.000000000000000000 ) ) ;
#283 = CIRCLE ( 'NONE', #292, 1.499999999999993561 ) ;
#284 =( LENGTH_UNIT ( ) NAMED_UNIT ( * ) SI_UNIT ( .MILLI., .METRE. ) );
#285 = CARTESIAN_POINT ( 'NONE',  ( 7.332110811570584779E-15, -2.571758278209443436E-16, 2.100000000000000977 ) ) ;
#286 = UNCERTAINTY_MEASURE_WITH_UNIT (LENGTH_MEASURE( 1.000000000000000082E-05 ), #284, 'distance_accuracy_value', 'NONE');
#287 = DIRECTION ( 'NONE',  ( 3.491481338843133355E-15, -0.000000000000000000, 1.000000000000000000 ) ) ;
#288 = DIRECTION ( 'NONE',  ( -4.275831445896958607E-31, -1.000000000000000000, -1.224646799147353207E-16 ) ) ;
#289 = SURFACE_STYLE_FILL_AREA ( #255 ) ;
#290 = DIRECTION ( 'NONE',  ( 3.491481338843133355E-15, -0.000000000000000000, 1.000000000000000000 ) ) ;
#291 = DIRECTION ( 'NONE',  ( 3.491481338843133355E-15, -1.224646799147353207E-16, 1.000000000000000000 ) ) ;
#292 = AXIS2_PLACEMENT_3D ( 'NONE', #53, #233, #250 ) ;
#293 = ORIENTED_EDGE ( 'NONE', *, *, #36, .F. ) ;
#294 =( NAMED_UNIT ( * ) SI_UNIT ( $, .STERADIAN. ) SOLID_ANGLE_UNIT ( ) );
#295 = ORIENTED_EDGE ( 'NONE', *, *, #230, .F. ) ;
#296 = ORIENTED_EDGE ( 'NONE', *, *, #208, .T. ) ;
#297 = ORIENTED_EDGE ( 'NONE', *, *, #276, .F. ) ;
#298 = AXIS2_PLACEMENT_3D ( 'NONE', #312, #338, #155 ) ;
#299 = ORIENTED_EDGE ( 'NONE', *, *, #270, .T. ) ;
#300 = CARTESIAN_POINT ( 'NONE',  ( -0.4499999999999925726, 5.510910596163087707E-17, 2.100000000000002753 ) ) ;
#301 =( GEOMETRIC_REPRESENTATION_CONTEXT ( 3 ) GLOBAL_UNCERTAINTY_ASSIGNED_CONTEXT ( ( #316 ) ) GLOBAL_UNIT_ASSIGNED_CONTEXT ( ( #56, #54, #294 ) ) REPRESENTATION_CONTEXT ( 'NONE', 'WORKASPACE' ) );
#302 = DIRECTION ( 'NONE',  ( -3.491481338843133355E-15, 1.224646799147353207E-16, -1.000000000000000000 ) ) ;
#303 = CARTESIAN_POINT ( 'NONE',  ( 0.000000000000000000, 0.000000000000000000, 0.000000000000000000 ) ) ;
#304 = SURFACE_STYLE_USAGE ( .BOTH. , #15 ) ;
#305 = LINE ( 'NONE', #329, #135 ) ;
#306 = CARTESIAN_POINT ( 'NONE',  ( 1.753139009425637106E-14, -6.149183879255234403E-16, 5.021189687946383096 ) ) ;
#307 = EDGE_CURVE ( 'NONE', #5, #6, #82, .T. ) ;
#308 =( NAMED_UNIT ( * ) PLANE_ANGLE_UNIT ( ) SI_UNIT ( $, .RADIAN. ) );
#309 = DIRECTION ( 'NONE',  ( -3.491481338843133355E-15, 1.224646799147353207E-16, -1.000000000000000000 ) ) ;
#310 = CIRCLE ( 'NONE', #164, 1.499999999999993561 ) ;
#311 = CYLINDRICAL_SURFACE ( 'NONE', #115, 0.4499999999999999001 ) ;
#312 = CARTESIAN_POINT ( 'NONE',  ( 7.332110811570584779E-15, 0.000000000000000000, 2.100000000000000977 ) ) ;
#313 = DIRECTION ( 'NONE',  ( -3.491481338843133355E-15, 1.224646799147353947E-16, -1.000000000000000000 ) ) ;
#314 = CARTESIAN_POINT ( 'NONE',  ( 1.323178959930974653E-13, -1.199999999999990186, 38.00000000000000000 ) ) ;
#315 = CONICAL_SURFACE ( 'NONE', #64, 0.4500000000000001776, 0.3450620389298189039 ) ;
#316 = UNCERTAINTY_MEASURE_WITH_UNIT (LENGTH_MEASURE( 1.000000000000000082E-05 ), #56, 'distance_accuracy_value', 'NONE');
#317 = ORIENTED_EDGE ( 'NONE', *, *, #192, .T. ) ;
#318 = CARTESIAN_POINT ( 'NONE',  ( 6.413747168845409884E-31, 1.499999999999993561, 1.836970198721021799E-16 ) ) ;
#319 = CIRCLE ( 'NONE', #323, 1.199999999999985523 ) ;
#320 = ORIENTED_EDGE ( 'NONE', *, *, #276, .T. ) ;
#321 = ORIENTED_EDGE ( 'NONE', *, *, #223, .F. ) ;
#322 = ORIENTED_EDGE ( 'NONE', *, *, #11, .T. ) ;
#323 = AXIS2_PLACEMENT_3D ( 'NONE', #180, #148, #205 ) ;
#324 = EDGE_LOOP ( 'NONE', ( #198, #162, #34, #297 ) ) ;
#325 = DIRECTION ( 'NONE',  ( 1.000000000000000000, 0.000000000000000000, -3.854941057726238689E-15 ) ) ;
#326 = CARTESIAN_POINT ( 'NONE',  ( 0.4499999999999999001, 0.000000000000000000, -2.004847471473611389E-15 ) ) ;
#327 = VECTOR ( 'NONE', #207, 1000.000000000000000 ) ;
#328 = CARTESIAN_POINT ( 'NONE',  ( 7.332110811570584779E-15, 0.4499999999999999001, 2.100000000000000977 ) ) ;
#329 = CARTESIAN_POINT ( 'NONE',  ( 0.4500000000000071720, 0.000000000000000000, 2.099999999999999645 ) ) ;
#330 = EDGE_CURVE ( 'NONE', #260, #112, #310, .T. ) ;
#331 = DIRECTION ( 'NONE',  ( 0.000000000000000000, -1.000000000000000000, 0.000000000000000000 ) ) ;
#332 = DIRECTION ( 'NONE',  ( 0.000000000000000000, 1.000000000000000000, 0.000000000000000000 ) ) ;
#333 = VERTEX_POINT ( 'NONE', #103 ) ;
#334 = CIRCLE ( 'NONE', #211, 0.4499999999999999001 ) ;
#335 = CIRCLE ( 'NONE', #274, 1.199999999999985523 ) ;
#336 = FACE_OUTER_BOUND ( 'NONE', #215, .T. ) ;
#337 = CARTESIAN_POINT ( 'NONE',  ( -9.620620753268156427E-31, 0.4499999999999999001, -2.755455298081544285E-16 ) ) ;
#338 = DIRECTION ( 'NONE',  ( 3.491481338843133355E-15, -0.000000000000000000, 1.000000000000000000 ) ) ;
#339 = PLANE ( 'NONE',  #202 ) ;
#340 = PRESENTATION_STYLE_ASSIGNMENT (( #342 ) ) ;
#341 = EDGE_LOOP ( 'NONE', ( #113, #93 ) ) ;
#342 = SURFACE_STYLE_USAGE ( .BOTH. , #104 ) ;
#343 = CARTESIAN_POINT ( 'NONE',  ( 7.332110811570584779E-15, -0.4500000000000003997, 2.100000000000000977 ) ) ;
ENDSEC;
END-ISO-10303-21;
