ISO-10303-21;
HEADER;
FILE_DESCRIPTION (( 'STEP AP203' ),
    '1' );
FILE_NAME ('41535.step',
    '2021-09-03T07:22:15',
    ( '' ),
    ( '' ),
    'SwSTEP 2.0',
    'SolidWorks 2019',
    '' );
FILE_SCHEMA (( 'CONFIG_CONTROL_DESIGN' ));
ENDSEC;

DATA;
#1 = DIRECTION ( 'NONE',  ( -3.491481338843133355E-15, 1.224646799147353454E-16, -1.000000000000000000 ) ) ;
#2 = CARTESIAN_POINT ( 'NONE',  ( 7.696496602614517259E-31, 1.799999999999997824, 2.204364238465233604E-16 ) ) ;
#3 = CC_DESIGN_SECURITY_CLASSIFICATION ( #154, ( #187 ) ) ;
#4 = CARTESIAN_POINT ( 'NONE',  ( 7.696496602614504122E-31, 1.799999999999994715, 2.204364238465229659E-16 ) ) ;
#5 = ORIENTED_EDGE ( 'NONE', *, *, #303, .T. ) ;
#6 = CALENDAR_DATE ( 2021, 3, 9 ) ;
#7 = EDGE_CURVE ( 'NONE', #217, #271, #337, .T. ) ;
#8 = CLOSED_SHELL ( 'NONE', ( #75, #138, #266, #81, #289, #23 ) ) ;
#9 = COORDINATED_UNIVERSAL_TIME_OFFSET ( 1, 0, .AHEAD. ) ;
#10 = DIRECTION ( 'NONE',  ( -4.279844320860538909E-31, -1.000000000000000000, -1.204669080539453535E-16 ) ) ;
#11 = APPROVAL_DATE_TIME ( #190, #115 ) ;
#12 = PERSON_AND_ORGANIZATION_ROLE ( 'design_supplier' ) ;
#13 = VERTEX_POINT ( 'NONE', #157 ) ;
#14 = CC_DESIGN_DATE_AND_TIME_ASSIGNMENT ( #309, #183, ( #335 ) ) ;
#15 = DIRECTION ( 'NONE',  ( 4.275831445896959482E-31, 1.000000000000000000, 1.224646799147353454E-16 ) ) ;
#16 = EDGE_LOOP ( 'NONE', ( #201, #285, #60, #143 ) ) ;
#17 = EDGE_CURVE ( 'NONE', #195, #196, #80, .T. ) ;
#18 = CARTESIAN_POINT ( 'NONE',  ( 2.204364238465222017E-16, -1.799999999999994715, -2.204364238465237548E-16 ) ) ;
#19 = AXIS2_PLACEMENT_3D ( 'NONE', #278, #284, #194 ) ;
#20 = EDGE_LOOP ( 'NONE', ( #209, #268, #277 ) ) ;
#21 = LOCAL_TIME ( 9, 22, 15.00000000000000000, #79 ) ;
#22 = DIRECTION ( 'NONE',  ( 1.798245827342159528E-15, -0.8571673007021100021, 0.5150380749100580413 ) ) ;
#23 = ADVANCED_FACE ( 'NONE', ( #182 ), #184, .F. ) ;
#24 = FACE_OUTER_BOUND ( 'NONE', #16, .T. ) ;
#25 = CALENDAR_DATE ( 2021, 3, 9 ) ;
#26 = AXIS2_PLACEMENT_3D ( 'NONE', #232, #321, #136 ) ;
#27 = AXIS2_PLACEMENT_3D ( 'NONE', #245, #116, #117 ) ;
#28 = CYLINDRICAL_SURFACE ( 'NONE', #315, 1.799999999999997824 ) ;
#29 = CARTESIAN_POINT ( 'NONE',  ( 3.776208549444855848E-15, -1.324515660886448143E-16, 1.081549114249616528 ) ) ;
#30 = PERSON_AND_ORGANIZATION_ROLE ( 'classification_officer' ) ;
#31 = DIRECTION ( 'NONE',  ( 3.491481338843133355E-15, -1.224646799147353454E-16, 1.000000000000000000 ) ) ;
#32 = AXIS2_PLACEMENT_3D ( 'NONE', #34, #109, #87 ) ;
#33 = VECTOR ( 'NONE', #101, 1000.000000000000000 ) ;
#34 = CARTESIAN_POINT ( 'NONE',  ( 5.237222008264700033E-14, -1.836970198721029983E-15, 15.00000000000000000 ) ) ;
#35 = DIRECTION ( 'NONE',  ( -3.491481338843133355E-15, 1.224646799147353454E-16, -1.000000000000000000 ) ) ;
#36 = PERSON_AND_ORGANIZATION ( #286, #316 ) ;
#37 = VERTEX_POINT ( 'NONE', #103 ) ;
#38 = DIRECTION ( 'NONE',  ( -4.279844320860538909E-31, -1.000000000000000000, -1.204669080539453535E-16 ) ) ;
#39 = VECTOR ( 'NONE', #178, 1000.000000000000000 ) ;
#40 =( NAMED_UNIT ( * ) PLANE_ANGLE_UNIT ( ) SI_UNIT ( $, .RADIAN. ) );
#41 = CARTESIAN_POINT ( 'NONE',  ( 5.237222008264700033E-14, 1.799999999999993605, 15.00000000000000000 ) ) ;
#42 = PERSON_AND_ORGANIZATION ( #286, #316 ) ;
#43 = DIRECTION ( 'NONE',  ( 0.0000000000000000000, 1.000000000000000000, 0.0000000000000000000 ) ) ;
#44 = CARTESIAN_POINT ( 'NONE',  ( 1.801604370843056811E-13, -6.319177483600343742E-15, 51.60000000000000142 ) ) ;
#45 = CARTESIAN_POINT ( 'NONE',  ( 3.996644973291379430E-15, 1.799999999999993605, 1.081549114249616750 ) ) ;
#46 = DIRECTION ( 'NONE',  ( 0.0000000000000000000, 1.000000000000000000, 0.0000000000000000000 ) ) ;
#47 = EDGE_CURVE ( 'NONE', #85, #324, #97, .T. ) ;
#48 = MANIFOLD_SOLID_BREP ( 'Corps-Déplacer/Copier1[1]', #8 ) ;
#49 = VECTOR ( 'NONE', #22, 1000.000000000000000 ) ;
#50 = VERTEX_POINT ( 'NONE', #45 ) ;
#51 = LOCAL_TIME ( 9, 22, 15.00000000000000000, #130 ) ;
#52 = MANIFOLD_SOLID_BREP ( 'Corps-Déplacer/Copier1[2]', #152 ) ;
#53 = CARTESIAN_POINT ( 'NONE',  ( 3.776208549444855059E-15, -1.799999999999994049, 1.081549114249616306 ) ) ;
#54 = ORIENTED_EDGE ( 'NONE', *, *, #57, .F. ) ;
#55 = DIRECTION ( 'NONE',  ( 0.0000000000000000000, 1.000000000000000000, 0.0000000000000000000 ) ) ;
#56 = ORIENTED_EDGE ( 'NONE', *, *, #71, .F. ) ;
#57 = EDGE_CURVE ( 'NONE', #50, #271, #175, .T. ) ;
#58 = FACE_OUTER_BOUND ( 'NONE', #225, .T. ) ;
#59 = ORIENTED_EDGE ( 'NONE', *, *, #134, .F. ) ;
#60 = ORIENTED_EDGE ( 'NONE', *, *, #17, .T. ) ;
#61 = APPLICATION_PROTOCOL_DEFINITION ( 'international standard', 'config_control_design', 1994, #171 ) ;
#62 = CARTESIAN_POINT ( 'NONE',  ( 5.237222008264700033E-14, -1.836970198721029983E-15, 15.00000000000000000 ) ) ;
#63 = AXIS2_PLACEMENT_3D ( 'NONE', #69, #275, #169 ) ;
#64 = FACE_OUTER_BOUND ( 'NONE', #262, .T. ) ;
#65 = CC_DESIGN_APPROVAL ( #115, ( #187 ) ) ;
#66 = PLANE ( 'NONE',  #325 ) ;
#67 = UNCERTAINTY_MEASURE_WITH_UNIT (LENGTH_MEASURE( 1.000000000000000082E-05 ), #210, 'distance_accuracy_value', 'NONE');
#68 = LINE ( 'NONE', #189, #177 ) ;
#69 = CARTESIAN_POINT ( 'NONE',  ( 0.0000000000000000000, 0.0000000000000000000, 0.0000000000000000000 ) ) ;
#70 = COORDINATED_UNIVERSAL_TIME_OFFSET ( 1, 0, .AHEAD. ) ;
#71 = EDGE_CURVE ( 'NONE', #213, #37, #126, .T. ) ;
#72 = CARTESIAN_POINT ( 'NONE',  ( 1.164867650073228122E-13, -1.799999999999997158, 15.00000000000000000 ) ) ;
#73 = EDGE_LOOP ( 'NONE', ( #207, #250 ) ) ;
#74 = ORIENTED_EDGE ( 'NONE', *, *, #90, .T. ) ;
#75 = ADVANCED_FACE ( 'NONE', ( #180 ), #91, .T. ) ;
#76 = AXIS2_PLACEMENT_3D ( 'NONE', #281, #314, #276 ) ;
#77 = CALENDAR_DATE ( 2021, 3, 9 ) ;
#78 = DIRECTION ( 'NONE',  ( -3.491481338843133355E-15, 1.224646799147353454E-16, -1.000000000000000000 ) ) ;
#79 = COORDINATED_UNIVERSAL_TIME_OFFSET ( 1, 0, .AHEAD. ) ;
#80 = LINE ( 'NONE', #2, #123 ) ;
#81 = ADVANCED_FACE ( 'NONE', ( #24 ), #28, .T. ) ;
#82 = CARTESIAN_POINT ( 'NONE',  ( 3.776208549444855848E-15, -1.324515660886448143E-16, 1.081549114249616528 ) ) ;
#83 = AXIS2_PLACEMENT_3D ( 'NONE', #247, #173, #298 ) ;
#84 = DIRECTION ( 'NONE',  ( -4.275831445896959482E-31, -1.000000000000000000, -1.224646799147353454E-16 ) ) ;
#85 = VERTEX_POINT ( 'NONE', #224 ) ;
#86 = EDGE_CURVE ( 'NONE', #297, #50, #228, .T. ) ;
#87 = DIRECTION ( 'NONE',  ( 0.0000000000000000000, 1.000000000000000000, 0.0000000000000000000 ) ) ;
#88 = CALENDAR_DATE ( 2021, 3, 9 ) ;
#89 = EDGE_LOOP ( 'NONE', ( #155, #244 ) ) ;
#90 = EDGE_CURVE ( 'NONE', #37, #213, #100, .T. ) ;
#91 = CONICAL_SURFACE ( 'NONE', #267, 1.399999999999999911, 0.7853981633974512766 ) ;
#92 = CIRCLE ( 'NONE', #32, 1.799999999999995381 ) ;
#93 = CARTESIAN_POINT ( 'NONE',  ( 1.815570296198429345E-13, 1.399999999999993694, 52.00000000000000000 ) ) ;
#94 = APPROVAL_PERSON_ORGANIZATION ( #104, #292, #257 ) ;
#95 = APPROVAL_STATUS ( 'not_yet_approved' ) ;
#96 = ADVANCED_FACE ( 'NONE', ( #58 ), #322, .T. ) ;
#97 = LINE ( 'NONE', #273, #39 ) ;
#98 = PRODUCT ( '41535', '41535', '', ( #128 ) ) ;
#99 = ORIENTED_EDGE ( 'NONE', *, *, #328, .T. ) ;
#100 = CIRCLE ( 'NONE', #112, 1.399999999999999911 ) ;
#101 = DIRECTION ( 'NONE',  ( -3.491481338843133355E-15, 1.224646799147353454E-16, -1.000000000000000000 ) ) ;
#102 = DIRECTION ( 'NONE',  ( 4.275831445896959482E-31, 1.000000000000000000, 1.224646799147353454E-16 ) ) ;
#103 = CARTESIAN_POINT ( 'NONE',  ( 1.810546768399378815E-13, -1.400000000000006350, 52.00000000000000000 ) ) ;
#104 = PERSON_AND_ORGANIZATION ( #286, #316 ) ;
#105 = ADVANCED_FACE ( 'NONE', ( #64 ), #214, .T. ) ;
#106 = EDGE_LOOP ( 'NONE', ( #141, #246, #239, #258 ) ) ;
#107 = AXIS2_PLACEMENT_3D ( 'NONE', #227, #202, #311 ) ;
#108 = APPROVAL_PERSON_ORGANIZATION ( #280, #115, #260 ) ;
#109 = DIRECTION ( 'NONE',  ( -3.491481338843133355E-15, 1.224646799147353454E-16, -1.000000000000000000 ) ) ;
#110 = SECURITY_CLASSIFICATION_LEVEL ( 'unclassified' ) ;
#111 = FACE_OUTER_BOUND ( 'NONE', #20, .T. ) ;
#112 = AXIS2_PLACEMENT_3D ( 'NONE', #237, #35, #323 ) ;
#113 = AXIS2_PLACEMENT_3D ( 'NONE', #320, #300, #223 ) ;
#114 =( NAMED_UNIT ( * ) SI_UNIT ( $, .STERADIAN. ) SOLID_ANGLE_UNIT ( ) );
#115 = APPROVAL ( #158, 'UNSPECIFIED' ) ;
#116 = DIRECTION ( 'NONE',  ( -3.491481338843133355E-15, 1.224646799147353454E-16, -1.000000000000000000 ) ) ;
#117 = DIRECTION ( 'NONE',  ( 0.0000000000000000000, 1.000000000000000000, 0.0000000000000000000 ) ) ;
#118 = AXIS2_PLACEMENT_3D ( 'NONE', #29, #131, #192 ) ;
#119 = EDGE_CURVE ( 'NONE', #195, #85, #282, .T. ) ;
#120 = FACE_OUTER_BOUND ( 'NONE', #296, .T. ) ;
#121 = DIRECTION ( 'NONE',  ( -3.491481338843133355E-15, 1.224646799147353454E-16, -1.000000000000000000 ) ) ;
#122 = PLANE ( 'NONE',  #294 ) ;
#123 = VECTOR ( 'NONE', #307, 1000.000000000000000 ) ;
#124 = DATE_AND_TIME ( #176, #234 ) ;
#125 = DIRECTION ( 'NONE',  ( -3.491481338843133355E-15, 1.224646799147353454E-16, -1.000000000000000000 ) ) ;
#126 = CIRCLE ( 'NONE', #19, 1.399999999999999911 ) ;
#127 = LOCAL_TIME ( 9, 22, 15.00000000000000000, #229 ) ;
#128 = MECHANICAL_CONTEXT ( 'NONE', #171, 'mechanical' ) ;
#129 = DIRECTION ( 'NONE',  ( 4.279844320860538909E-31, 1.000000000000000000, 1.204669080539453535E-16 ) ) ;
#130 = COORDINATED_UNIVERSAL_TIME_OFFSET ( 1, 0, .AHEAD. ) ;
#131 = DIRECTION ( 'NONE',  ( -3.491481338843133355E-15, 1.224646799147353454E-16, -1.000000000000000000 ) ) ;
#132 = ORIENTED_EDGE ( 'NONE', *, *, #328, .F. ) ;
#133 = CONICAL_SURFACE ( 'NONE', #27, 1.399999999999999911, 0.7853981633974512766 ) ;
#134 = EDGE_CURVE ( 'NONE', #213, #195, #144, .T. ) ;
#135 = ORIENTED_EDGE ( 'NONE', *, *, #90, .F. ) ;
#136 = DIRECTION ( 'NONE',  ( 0.0000000000000000000, 1.000000000000000000, 0.0000000000000000000 ) ) ;
#137 = PERSON_AND_ORGANIZATION ( #286, #316 ) ;
#138 = ADVANCED_FACE ( 'NONE', ( #220 ), #248, .T. ) ;
#139 = AXIS2_PLACEMENT_3D ( 'NONE', #82, #215, #38 ) ;
#140 = AXIS2_PLACEMENT_3D ( 'NONE', #44, #121, #46 ) ;
#141 = ORIENTED_EDGE ( 'NONE', *, *, #119, .T. ) ;
#142 = DIRECTION ( 'NONE',  ( 0.0000000000000000000, 1.000000000000000000, 0.0000000000000000000 ) ) ;
#143 = ORIENTED_EDGE ( 'NONE', *, *, #330, .F. ) ;
#144 = LINE ( 'NONE', #93, #191 ) ;
#145 = PRODUCT_DEFINITION_SHAPE ( 'NONE', 'NONE',  #335 ) ;
#146 = EDGE_CURVE ( 'NONE', #297, #13, #256, .T. ) ;
#147 = CIRCLE ( 'NONE', #168, 1.799999999999995381 ) ;
#148 = EDGE_LOOP ( 'NONE', ( #252, #162, #203, #59 ) ) ;
#149 = DIRECTION ( 'NONE',  ( -2.468850131082257455E-15, 0.7071067811865497932, -0.7071067811865453523 ) ) ;
#150 = ADVANCED_FACE ( 'NONE', ( #254 ), #122, .T. ) ;
#151 = CC_DESIGN_PERSON_AND_ORGANIZATION_ASSIGNMENT ( #36, #30, ( #154 ) ) ;
#152 = CLOSED_SHELL ( 'NONE', ( #96, #243, #261, #105, #150 ) ) ;
#153 = CARTESIAN_POINT ( 'NONE',  ( 1.815570296198429345E-13, -6.368163355566237959E-15, 52.00000000000000000 ) ) ;
#154 = SECURITY_CLASSIFICATION ( '', '', #110 ) ;
#155 = ORIENTED_EDGE ( 'NONE', *, *, #146, .F. ) ;
#156 = APPROVAL_DATE_TIME ( #200, #292 ) ;
#157 = CARTESIAN_POINT ( 'NONE',  ( 2.829465073989242840E-14, -1.799999999999997158, 15.00000000000000000 ) ) ;
#158 = APPROVAL_STATUS ( 'not_yet_approved' ) ;
#159 = AXIS2_PLACEMENT_3D ( 'NONE', #198, #301, #142 ) ;
#160 = PERSON_AND_ORGANIZATION ( #286, #316 ) ;
#161 = DIRECTION ( 'NONE',  ( 1.903218546456021928E-15, 0.8571673007021098911, 0.5150380749100583744 ) ) ;
#162 = ORIENTED_EDGE ( 'NONE', *, *, #306, .T. ) ;
#163 = VECTOR ( 'NONE', #329, 1000.000000000000114 ) ;
#164 = ORIENTED_EDGE ( 'NONE', *, *, #57, .T. ) ;
#165 = DIRECTION ( 'NONE',  ( -4.275831445896959482E-31, -1.000000000000000000, -1.224646799147353454E-16 ) ) ;
#166 = ADVANCED_BREP_SHAPE_REPRESENTATION ( '41535', ( #48, #52, #113 ), #222 ) ;
#167 = LINE ( 'NONE', #193, #163 ) ;
#168 = AXIS2_PLACEMENT_3D ( 'NONE', #62, #327, #43 ) ;
#169 = DIRECTION ( 'NONE',  ( 4.275831445896959482E-31, 1.000000000000000000, 1.224646799147353454E-16 ) ) ;
#170 = CARTESIAN_POINT ( 'NONE',  ( 3.776208549444855059E-15, -1.799999999999994049, 1.081549114249616306 ) ) ;
#171 = APPLICATION_CONTEXT ( 'configuration controlled 3d designs of mechanical parts and assemblies' ) ;
#172 = CC_DESIGN_PERSON_AND_ORGANIZATION_ASSIGNMENT ( #137, #12, ( #187 ) ) ;
#173 = DIRECTION ( 'NONE',  ( -3.491481338843133355E-15, 1.224646799147353454E-16, -1.000000000000000000 ) ) ;
#174 = DESIGN_CONTEXT ( 'detailed design', #199, 'design' ) ;
#175 = CIRCLE ( 'NONE', #242, 1.799999999999993827 ) ;
#176 = CALENDAR_DATE ( 2021, 3, 9 ) ;
#177 = VECTOR ( 'NONE', #161, 1000.000000000000114 ) ;
#178 = DIRECTION ( 'NONE',  ( -3.491481338843133355E-15, 1.224646799147353454E-16, -1.000000000000000000 ) ) ;
#179 = EDGE_CURVE ( 'NONE', #196, #324, #92, .T. ) ;
#180 = FACE_OUTER_BOUND ( 'NONE', #148, .T. ) ;
#181 = CONICAL_SURFACE ( 'NONE', #139, 1.799999999999993827, 1.029744258676649871 ) ;
#182 = FACE_OUTER_BOUND ( 'NONE', #265, .T. ) ;
#183 = DATE_TIME_ROLE ( 'creation_date' ) ;
#184 = PLANE ( 'NONE',  #76 ) ;
#185 = EDGE_CURVE ( 'NONE', #85, #195, #186, .T. ) ;
#186 = CIRCLE ( 'NONE', #26, 1.800000000000000044 ) ;
#187 = PRODUCT_DEFINITION_FORMATION_WITH_SPECIFIED_SOURCE ( 'ANY', '', #98, .NOT_KNOWN. ) ;
#188 = CARTESIAN_POINT ( 'NONE',  ( 1.801604370843056811E-13, 1.799999999999993605, 51.60000000000000142 ) ) ;
#189 = CARTESIAN_POINT ( 'NONE',  ( 3.996644973291379430E-15, 1.799999999999993605, 1.081549114249616750 ) ) ;
#190 = DATE_AND_TIME ( #6, #127 ) ;
#191 = VECTOR ( 'NONE', #149, 1000.000000000000114 ) ;
#192 = DIRECTION ( 'NONE',  ( 4.279844320860538909E-31, 1.000000000000000000, 1.204669080539453535E-16 ) ) ;
#193 = CARTESIAN_POINT ( 'NONE',  ( 1.817284801717235536E-13, -1.400000000000006350, 52.00000000000000000 ) ) ;
#194 = DIRECTION ( 'NONE',  ( 0.0000000000000000000, 1.000000000000000000, 0.0000000000000000000 ) ) ;
#195 = VERTEX_POINT ( 'NONE', #188 ) ;
#196 = VERTEX_POINT ( 'NONE', #240 ) ;
#197 = DIRECTION ( 'NONE',  ( -3.491481338843133355E-15, 1.224646799147353454E-16, -1.000000000000000000 ) ) ;
#198 = CARTESIAN_POINT ( 'NONE',  ( 5.237222008264700033E-14, -1.836970198721029983E-15, 15.00000000000000000 ) ) ;
#199 = APPLICATION_CONTEXT ( 'configuration controlled 3d designs of mechanical parts and assemblies' ) ;
#200 = DATE_AND_TIME ( #77, #51 ) ;
#201 = ORIENTED_EDGE ( 'NONE', *, *, #47, .F. ) ;
#202 = DIRECTION ( 'NONE',  ( -3.491481338843133355E-15, 1.224646799147353454E-16, -1.000000000000000000 ) ) ;
#203 = ORIENTED_EDGE ( 'NONE', *, *, #119, .F. ) ;
#204 = PRODUCT_RELATED_PRODUCT_CATEGORY ( 'detail', '', ( #98 ) ) ;
#205 = AXIS2_PLACEMENT_3D ( 'NONE', #331, #197, #15 ) ;
#206 = APPROVAL_PERSON_ORGANIZATION ( #42, #272, #299 ) ;
#207 = ORIENTED_EDGE ( 'NONE', *, *, #179, .T. ) ;
#208 = CARTESIAN_POINT ( 'NONE',  ( 5.237222008264700033E-14, 1.349783804395666373E-32, 15.00000000000000000 ) ) ;
#209 = ORIENTED_EDGE ( 'NONE', *, *, #319, .F. ) ;
#210 =( LENGTH_UNIT ( ) NAMED_UNIT ( * ) SI_UNIT ( .MILLI., .METRE. ) );
#211 = LOCAL_TIME ( 9, 22, 15.00000000000000000, #9 ) ;
#212 = CARTESIAN_POINT ( 'NONE',  ( 0.0000000000000000000, 0.0000000000000000000, 0.0000000000000000000 ) ) ;
#213 = VERTEX_POINT ( 'NONE', #288 ) ;
#214 = CYLINDRICAL_SURFACE ( 'NONE', #63, 1.799999999999994715 ) ;
#215 = DIRECTION ( 'NONE',  ( 3.491481338843133355E-15, -1.224646799147353454E-16, 1.000000000000000000 ) ) ;
#216 = ORIENTED_EDGE ( 'NONE', *, *, #319, .T. ) ;
#217 = VERTEX_POINT ( 'NONE', #212 ) ;
#218 = DIRECTION ( 'NONE',  ( 3.491481338843133355E-15, -1.224646799147353454E-16, 1.000000000000000000 ) ) ;
#219 = EDGE_CURVE ( 'NONE', #271, #50, #334, .T. ) ;
#220 = FACE_OUTER_BOUND ( 'NONE', #106, .T. ) ;
#221 = ORIENTED_EDGE ( 'NONE', *, *, #7, .F. ) ;
#222 =( GEOMETRIC_REPRESENTATION_CONTEXT ( 3 ) GLOBAL_UNCERTAINTY_ASSIGNED_CONTEXT ( ( #67 ) ) GLOBAL_UNIT_ASSIGNED_CONTEXT ( ( #210, #40, #114 ) ) REPRESENTATION_CONTEXT ( 'NONE', 'WORKASPACE' ) );
#223 = DIRECTION ( 'NONE',  ( 1.000000000000000000, 0.0000000000000000000, 0.0000000000000000000 ) ) ;
#224 = CARTESIAN_POINT ( 'NONE',  ( 1.164867650073226860E-13, -1.800000000000006040, 51.60000000000000142 ) ) ;
#225 = EDGE_LOOP ( 'NONE', ( #291, #99, #54, #310 ) ) ;
#226 = CC_DESIGN_PERSON_AND_ORGANIZATION_ASSIGNMENT ( #241, #238, ( #187 ) ) ;
#227 = CARTESIAN_POINT ( 'NONE',  ( 5.237222008264700033E-14, -1.836970198721029983E-15, 15.00000000000000000 ) ) ;
#228 = LINE ( 'NONE', #4, #233 ) ;
#229 = COORDINATED_UNIVERSAL_TIME_OFFSET ( 1, 0, .AHEAD. ) ;
#230 = CC_DESIGN_PERSON_AND_ORGANIZATION_ASSIGNMENT ( #305, #259, ( #335 ) ) ;
#231 = EDGE_LOOP ( 'NONE', ( #221, #216, #164 ) ) ;
#232 = CARTESIAN_POINT ( 'NONE',  ( 1.801604370843056811E-13, -6.319177483600343742E-15, 51.60000000000000142 ) ) ;
#233 = VECTOR ( 'NONE', #78, 1000.000000000000000 ) ;
#234 = LOCAL_TIME ( 9, 22, 15.00000000000000000, #70 ) ;
#235 = ORIENTED_EDGE ( 'NONE', *, *, #134, .T. ) ;
#236 = CARTESIAN_POINT ( 'NONE',  ( 3.776208549444855848E-15, -1.324515660886448143E-16, 1.081549114249616528 ) ) ;
#237 = CARTESIAN_POINT ( 'NONE',  ( 1.815570296198429345E-13, -6.368163355566237959E-15, 52.00000000000000000 ) ) ;
#238 = PERSON_AND_ORGANIZATION_ROLE ( 'creator' ) ;
#239 = ORIENTED_EDGE ( 'NONE', *, *, #179, .F. ) ;
#240 = CARTESIAN_POINT ( 'NONE',  ( 5.237222008264700033E-14, 1.799999999999993605, 15.00000000000000000 ) ) ;
#241 = PERSON_AND_ORGANIZATION ( #286, #316 ) ;
#242 = AXIS2_PLACEMENT_3D ( 'NONE', #253, #332, #129 ) ;
#243 = ADVANCED_FACE ( 'NONE', ( #318 ), #304, .T. ) ;
#244 = ORIENTED_EDGE ( 'NONE', *, *, #303, .F. ) ;
#245 = CARTESIAN_POINT ( 'NONE',  ( 1.815570296198429345E-13, -6.368163355566237959E-15, 52.00000000000000000 ) ) ;
#246 = ORIENTED_EDGE ( 'NONE', *, *, #47, .T. ) ;
#247 = CARTESIAN_POINT ( 'NONE',  ( 0.0000000000000000000, 0.0000000000000000000, 0.0000000000000000000 ) ) ;
#248 = CYLINDRICAL_SURFACE ( 'NONE', #205, 1.799999999999997824 ) ;
#249 = FACE_OUTER_BOUND ( 'NONE', #73, .T. ) ;
#250 = ORIENTED_EDGE ( 'NONE', *, *, #330, .T. ) ;
#251 = CC_DESIGN_PERSON_AND_ORGANIZATION_ASSIGNMENT ( #160, #302, ( #98 ) ) ;
#252 = ORIENTED_EDGE ( 'NONE', *, *, #71, .T. ) ;
#253 = CARTESIAN_POINT ( 'NONE',  ( 3.776208549444855848E-15, -1.324515660886448143E-16, 1.081549114249616528 ) ) ;
#254 = FACE_OUTER_BOUND ( 'NONE', #89, .T. ) ;
#255 = ORIENTED_EDGE ( 'NONE', *, *, #86, .T. ) ;
#256 = CIRCLE ( 'NONE', #107, 1.799999999999995381 ) ;
#257 = APPROVAL_ROLE ( '' ) ;
#258 = ORIENTED_EDGE ( 'NONE', *, *, #17, .F. ) ;
#259 = PERSON_AND_ORGANIZATION_ROLE ( 'creator' ) ;
#260 = APPROVAL_ROLE ( '' ) ;
#261 = ADVANCED_FACE ( 'NONE', ( #111 ), #181, .T. ) ;
#262 = EDGE_LOOP ( 'NONE', ( #132, #5, #255, #263 ) ) ;
#263 = ORIENTED_EDGE ( 'NONE', *, *, #219, .F. ) ;
#264 = APPLICATION_PROTOCOL_DEFINITION ( 'international standard', 'config_control_design', 1994, #199 ) ;
#265 = EDGE_LOOP ( 'NONE', ( #56, #135 ) ) ;
#266 = ADVANCED_FACE ( 'NONE', ( #249 ), #66, .F. ) ;
#267 = AXIS2_PLACEMENT_3D ( 'NONE', #153, #1, #55 ) ;
#268 = ORIENTED_EDGE ( 'NONE', *, *, #7, .T. ) ;
#269 = CC_DESIGN_DATE_AND_TIME_ASSIGNMENT ( #290, #293, ( #154 ) ) ;
#270 = DIRECTION ( 'NONE',  ( 3.491481338843133355E-15, -1.224646799147353454E-16, 1.000000000000000000 ) ) ;
#271 = VERTEX_POINT ( 'NONE', #170 ) ;
#272 = APPROVAL ( #95, 'UNSPECIFIED' ) ;
#273 = CARTESIAN_POINT ( 'NONE',  ( 2.204364238465225468E-16, -1.799999999999997824, -2.204364238465240753E-16 ) ) ;
#274 = CARTESIAN_POINT ( 'NONE',  ( 5.237222008264700033E-14, 1.349783804395666373E-32, 15.00000000000000000 ) ) ;
#275 = DIRECTION ( 'NONE',  ( -3.491481338843133355E-15, 1.224646799147353454E-16, -1.000000000000000000 ) ) ;
#276 = DIRECTION ( 'NONE',  ( 4.275831445896959482E-31, 1.000000000000000000, 1.224646799147353454E-16 ) ) ;
#277 = ORIENTED_EDGE ( 'NONE', *, *, #219, .T. ) ;
#278 = CARTESIAN_POINT ( 'NONE',  ( 1.815570296198429345E-13, -6.368163355566237959E-15, 52.00000000000000000 ) ) ;
#279 = APPROVAL_DATE_TIME ( #124, #272 ) ;
#280 = PERSON_AND_ORGANIZATION ( #286, #316 ) ;
#281 = CARTESIAN_POINT ( 'NONE',  ( 1.815570296198429345E-13, 1.049831847863291431E-32, 52.00000000000000000 ) ) ;
#282 = CIRCLE ( 'NONE', #140, 1.800000000000000044 ) ;
#283 = CIRCLE ( 'NONE', #159, 1.799999999999995381 ) ;
#284 = DIRECTION ( 'NONE',  ( -3.491481338843133355E-15, 1.224646799147353454E-16, -1.000000000000000000 ) ) ;
#285 = ORIENTED_EDGE ( 'NONE', *, *, #185, .T. ) ;
#286 = PERSON ( 'UNSPECIFIED', 'UNSPECIFIED', 'UNSPECIFIED', ('UNSPECIFIED'), ('UNSPECIFIED'), ('UNSPECIFIED') ) ;
#287 = ORIENTED_EDGE ( 'NONE', *, *, #306, .F. ) ;
#288 = CARTESIAN_POINT ( 'NONE',  ( 1.815570296198429345E-13, 1.399999999999993694, 52.00000000000000000 ) ) ;
#289 = ADVANCED_FACE ( 'NONE', ( #120 ), #133, .T. ) ;
#290 = DATE_AND_TIME ( #88, #211 ) ;
#291 = ORIENTED_EDGE ( 'NONE', *, *, #146, .T. ) ;
#292 = APPROVAL ( #317, 'UNSPECIFIED' ) ;
#293 = DATE_TIME_ROLE ( 'classification_date' ) ;
#294 = AXIS2_PLACEMENT_3D ( 'NONE', #208, #31, #84 ) ;
#295 = CC_DESIGN_APPROVAL ( #292, ( #335 ) ) ;
#296 = EDGE_LOOP ( 'NONE', ( #287, #74, #235, #313 ) ) ;
#297 = VERTEX_POINT ( 'NONE', #41 ) ;
#298 = DIRECTION ( 'NONE',  ( 4.275831445896959482E-31, 1.000000000000000000, 1.224646799147353454E-16 ) ) ;
#299 = APPROVAL_ROLE ( '' ) ;
#300 = DIRECTION ( 'NONE',  ( 0.0000000000000000000, 0.0000000000000000000, 1.000000000000000000 ) ) ;
#301 = DIRECTION ( 'NONE',  ( -3.491481338843133355E-15, 1.224646799147353454E-16, -1.000000000000000000 ) ) ;
#302 = PERSON_AND_ORGANIZATION_ROLE ( 'design_owner' ) ;
#303 = EDGE_CURVE ( 'NONE', #13, #297, #147, .T. ) ;
#304 = CONICAL_SURFACE ( 'NONE', #333, 1.799999999999993827, 1.029744258676649871 ) ;
#305 = PERSON_AND_ORGANIZATION ( #286, #316 ) ;
#306 = EDGE_CURVE ( 'NONE', #37, #85, #167, .T. ) ;
#307 = DIRECTION ( 'NONE',  ( -3.491481338843133355E-15, 1.224646799147353454E-16, -1.000000000000000000 ) ) ;
#308 = SHAPE_DEFINITION_REPRESENTATION ( #145, #166 ) ;
#309 = DATE_AND_TIME ( #25, #21 ) ;
#310 = ORIENTED_EDGE ( 'NONE', *, *, #86, .F. ) ;
#311 = DIRECTION ( 'NONE',  ( 0.0000000000000000000, 1.000000000000000000, 0.0000000000000000000 ) ) ;
#312 = LINE ( 'NONE', #18, #33 ) ;
#313 = ORIENTED_EDGE ( 'NONE', *, *, #185, .F. ) ;
#314 = DIRECTION ( 'NONE',  ( -3.491481338843133355E-15, 1.224646799147353454E-16, -1.000000000000000000 ) ) ;
#315 = AXIS2_PLACEMENT_3D ( 'NONE', #336, #125, #102 ) ;
#316 = ORGANIZATION ( 'UNSPECIFIED', 'UNSPECIFIED', '' ) ;
#317 = APPROVAL_STATUS ( 'not_yet_approved' ) ;
#318 = FACE_OUTER_BOUND ( 'NONE', #231, .T. ) ;
#319 = EDGE_CURVE ( 'NONE', #217, #50, #68, .T. ) ;
#320 = CARTESIAN_POINT ( 'NONE',  ( 0.0000000000000000000, 0.0000000000000000000, 0.0000000000000000000 ) ) ;
#321 = DIRECTION ( 'NONE',  ( -3.491481338843133355E-15, 1.224646799147353454E-16, -1.000000000000000000 ) ) ;
#322 = CYLINDRICAL_SURFACE ( 'NONE', #83, 1.799999999999994715 ) ;
#323 = DIRECTION ( 'NONE',  ( 0.0000000000000000000, 1.000000000000000000, 0.0000000000000000000 ) ) ;
#324 = VERTEX_POINT ( 'NONE', #72 ) ;
#325 = AXIS2_PLACEMENT_3D ( 'NONE', #274, #218, #165 ) ;
#326 = CC_DESIGN_APPROVAL ( #272, ( #154 ) ) ;
#327 = DIRECTION ( 'NONE',  ( -3.491481338843133355E-15, 1.224646799147353454E-16, -1.000000000000000000 ) ) ;
#328 = EDGE_CURVE ( 'NONE', #13, #271, #312, .T. ) ;
#329 = DIRECTION ( 'NONE',  ( -2.382254525458708792E-15, -0.7071067811865495711, -0.7071067811865455743 ) ) ;
#330 = EDGE_CURVE ( 'NONE', #324, #196, #283, .T. ) ;
#331 = CARTESIAN_POINT ( 'NONE',  ( 0.0000000000000000000, 0.0000000000000000000, 0.0000000000000000000 ) ) ;
#332 = DIRECTION ( 'NONE',  ( -3.491481338843133355E-15, 1.224646799147353454E-16, -1.000000000000000000 ) ) ;
#333 = AXIS2_PLACEMENT_3D ( 'NONE', #236, #270, #10 ) ;
#334 = CIRCLE ( 'NONE', #118, 1.799999999999993827 ) ;
#335 = PRODUCT_DEFINITION ( 'UNKNOWN', '', #187, #174 ) ;
#336 = CARTESIAN_POINT ( 'NONE',  ( 0.0000000000000000000, 0.0000000000000000000, 0.0000000000000000000 ) ) ;
#337 = LINE ( 'NONE', #53, #49 ) ;
ENDSEC;
END-ISO-10303-21;
