ISO-10303-21;
HEADER;
FILE_DESCRIPTION (( 'STEP AP203' ),
    '1' );
FILE_NAME ('41534.step',
    '2021-09-03T07:22:14',
    ( '' ),
    ( '' ),
    'SwSTEP 2.0',
    'SolidWorks 2019',
    '' );
FILE_SCHEMA (( 'CONFIG_CONTROL_DESIGN' ));
ENDSEC;

DATA;
#1 = DIRECTION ( 'NONE',  ( -4.275831445896959482E-31, -1.000000000000000000, -1.224646799147353454E-16 ) ) ;
#2 = ORIENTED_EDGE ( 'NONE', *, *, #109, .F. ) ;
#3 = ORGANIZATION ( 'UNSPECIFIED', 'UNSPECIFIED', '' ) ;
#4 = ADVANCED_FACE ( 'NONE', ( #140 ), #291, .T. ) ;
#5 = CARTESIAN_POINT ( 'NONE',  ( 3.885627057366612426E-15, 1.749999999999991562, 1.051506083298236804 ) ) ;
#6 = EDGE_LOOP ( 'NONE', ( #183, #334 ) ) ;
#7 = DIRECTION ( 'NONE',  ( 0.0000000000000000000, 0.0000000000000000000, 1.000000000000000000 ) ) ;
#8 = CIRCLE ( 'NONE', #70, 1.749999999999991784 ) ;
#9 = DATE_AND_TIME ( #12, #285 ) ;
#10 = APPROVAL_ROLE ( '' ) ;
#11 = CARTESIAN_POINT ( 'NONE',  ( 3.671313867515825128E-15, -1.749999999999992006, 1.051506083298236360 ) ) ;
#12 = CALENDAR_DATE ( 2021, 3, 9 ) ;
#13 = AXIS2_PLACEMENT_3D ( 'NONE', #245, #36, #321 ) ;
#14 = APPROVAL_STATUS ( 'not_yet_approved' ) ;
#15 = EDGE_CURVE ( 'NONE', #206, #308, #336, .T. ) ;
#16 = ORIENTED_EDGE ( 'NONE', *, *, #235, .T. ) ;
#17 = DIRECTION ( 'NONE',  ( -3.491481338843133355E-15, 1.224646799147353454E-16, -1.000000000000000000 ) ) ;
#18 = ORIENTED_EDGE ( 'NONE', *, *, #187, .F. ) ;
#19 = DIRECTION ( 'NONE',  ( 0.0000000000000000000, 1.000000000000000000, 0.0000000000000000000 ) ) ;
#20 = AXIS2_PLACEMENT_3D ( 'NONE', #40, #243, #113 ) ;
#21 = CC_DESIGN_APPROVAL ( #232, ( #47 ) ) ;
#22 = ORIENTED_EDGE ( 'NONE', *, *, #249, .T. ) ;
#23 = EDGE_CURVE ( 'NONE', #298, #308, #335, .T. ) ;
#24 = DIRECTION ( 'NONE',  ( -3.491481338843133355E-15, 1.224646799147353454E-16, -1.000000000000000000 ) ) ;
#25 =( NAMED_UNIT ( * ) SI_UNIT ( $, .STERADIAN. ) SOLID_ANGLE_UNIT ( ) );
#26 = LOCAL_TIME ( 9, 22, 14.00000000000000000, #223 ) ;
#27 = CARTESIAN_POINT ( 'NONE',  ( 1.817223569377278307E-13, -1.350000000000004086, 52.00000000000000000 ) ) ;
#28 = EDGE_LOOP ( 'NONE', ( #56, #102, #299, #58 ) ) ;
#29 = PRODUCT_RELATED_PRODUCT_CATEGORY ( 'detail', '', ( #90 ) ) ;
#30 = DIRECTION ( 'NONE',  ( -3.491481338843133355E-15, 1.224646799147353454E-16, -1.000000000000000000 ) ) ;
#31 = APPROVAL_ROLE ( '' ) ;
#32 = DIRECTION ( 'NONE',  ( -3.491481338843133355E-15, 1.224646799147353454E-16, -1.000000000000000000 ) ) ;
#33 = AXIS2_PLACEMENT_3D ( 'NONE', #247, #120, #65 ) ;
#34 = CARTESIAN_POINT ( 'NONE',  ( 1.164806417733270894E-13, -1.749999999999995115, 15.00000000000000000 ) ) ;
#35 = FACE_OUTER_BOUND ( 'NONE', #28, .T. ) ;
#36 = DIRECTION ( 'NONE',  ( 3.491481338843133355E-15, -1.224646799147353454E-16, 1.000000000000000000 ) ) ;
#37 = APPROVAL_DATE_TIME ( #9, #54 ) ;
#38 = CARTESIAN_POINT ( 'NONE',  ( 1.810485536059421586E-13, -1.350000000000004086, 52.00000000000000000 ) ) ;
#39 = SECURITY_CLASSIFICATION ( '', '', #236 ) ;
#40 = CARTESIAN_POINT ( 'NONE',  ( 0.0000000000000000000, 0.0000000000000000000, 0.0000000000000000000 ) ) ;
#41 = CARTESIAN_POINT ( 'NONE',  ( 3.671313867515825917E-15, -1.287723559195155883E-16, 1.051506083298236582 ) ) ;
#42 = APPROVAL_STATUS ( 'not_yet_approved' ) ;
#43 = EDGE_CURVE ( 'NONE', #215, #206, #233, .T. ) ;
#44 = CARTESIAN_POINT ( 'NONE',  ( 1.801604370843057064E-13, -6.319177483600344531E-15, 51.60000000000000853 ) ) ;
#45 = CARTESIAN_POINT ( 'NONE',  ( 3.671313867515825917E-15, -1.287723559195155883E-16, 1.051506083298236582 ) ) ;
#46 = VECTOR ( 'NONE', #86, 1000.000000000000114 ) ;
#47 = PRODUCT_DEFINITION_FORMATION_WITH_SPECIFIED_SOURCE ( 'ANY', '', #90, .NOT_KNOWN. ) ;
#48 = EDGE_LOOP ( 'NONE', ( #81, #280, #205, #313 ) ) ;
#49 = DIRECTION ( 'NONE',  ( 4.275831445896959482E-31, 1.000000000000000000, 1.224646799147353454E-16 ) ) ;
#50 = MANIFOLD_SOLID_BREP ( 'Corps-Déplacer/Copier1[2]', #78 ) ;
#51 = CARTESIAN_POINT ( 'NONE',  ( 0.0000000000000000000, 0.0000000000000000000, 0.0000000000000000000 ) ) ;
#52 = AXIS2_PLACEMENT_3D ( 'NONE', #170, #221, #276 ) ;
#53 =( NAMED_UNIT ( * ) PLANE_ANGLE_UNIT ( ) SI_UNIT ( $, .RADIAN. ) );
#54 = APPROVAL ( #14, 'UNSPECIFIED' ) ;
#55 = EDGE_LOOP ( 'NONE', ( #2, #93, #116 ) ) ;
#56 = ORIENTED_EDGE ( 'NONE', *, *, #43, .F. ) ;
#57 = CARTESIAN_POINT ( 'NONE',  ( 2.143131898507855232E-16, -1.749999999999995559, -2.143131898507870270E-16 ) ) ;
#58 = ORIENTED_EDGE ( 'NONE', *, *, #261, .F. ) ;
#59 = CONICAL_SURFACE ( 'NONE', #52, 1.349999999999997868, 0.7853981633974599363 ) ;
#60 = APPROVAL_PERSON_ORGANIZATION ( #296, #232, #301 ) ;
#61 = ORIENTED_EDGE ( 'NONE', *, *, #43, .T. ) ;
#62 = FACE_OUTER_BOUND ( 'NONE', #55, .T. ) ;
#63 = DIRECTION ( 'NONE',  ( 0.0000000000000000000, 1.000000000000000000, 0.0000000000000000000 ) ) ;
#64 = CIRCLE ( 'NONE', #222, 1.749999999999997780 ) ;
#65 = DIRECTION ( 'NONE',  ( 0.0000000000000000000, 1.000000000000000000, 0.0000000000000000000 ) ) ;
#66 = ORIENTED_EDGE ( 'NONE', *, *, #180, .T. ) ;
#67 = COORDINATED_UNIVERSAL_TIME_OFFSET ( 1, 0, .AHEAD. ) ;
#68 = DIRECTION ( 'NONE',  ( 0.0000000000000000000, 1.000000000000000000, 0.0000000000000000000 ) ) ;
#69 = DIRECTION ( 'NONE',  ( 4.275831445896959482E-31, 1.000000000000000000, 1.224646799147353454E-16 ) ) ;
#70 = AXIS2_PLACEMENT_3D ( 'NONE', #176, #228, #260 ) ;
#71 = DIRECTION ( 'NONE',  ( -3.491481338843133355E-15, 1.224646799147353454E-16, -1.000000000000000000 ) ) ;
#72 = CC_DESIGN_PERSON_AND_ORGANIZATION_ASSIGNMENT ( #288, #240, ( #90 ) ) ;
#73 = SHAPE_DEFINITION_REPRESENTATION ( #201, #168 ) ;
#74 = CARTESIAN_POINT ( 'NONE',  ( 3.671313867515825128E-15, -1.749999999999992006, 1.051506083298236360 ) ) ;
#75 = DIRECTION ( 'NONE',  ( -3.491481338843133355E-15, 1.224646799147353454E-16, -1.000000000000000000 ) ) ;
#76 = DIRECTION ( 'NONE',  ( 4.275831445896959482E-31, 1.000000000000000000, 1.224646799147353454E-16 ) ) ;
#77 = COORDINATED_UNIVERSAL_TIME_OFFSET ( 1, 0, .AHEAD. ) ;
#78 = CLOSED_SHELL ( 'NONE', ( #202, #227, #114, #305, #4 ) ) ;
#79 = CC_DESIGN_APPROVAL ( #54, ( #158 ) ) ;
#80 = DIRECTION ( 'NONE',  ( -3.491481338843133355E-15, 1.224646799147353454E-16, -1.000000000000000000 ) ) ;
#81 = ORIENTED_EDGE ( 'NONE', *, *, #15, .F. ) ;
#82 = EDGE_LOOP ( 'NONE', ( #292, #273, #16 ) ) ;
#83 = PERSON_AND_ORGANIZATION ( #324, #3 ) ;
#84 = CIRCLE ( 'NONE', #238, 1.749999999999993339 ) ;
#85 = MECHANICAL_CONTEXT ( 'NONE', #329, 'mechanical' ) ;
#86 = DIRECTION ( 'NONE',  ( 1.903218546456021928E-15, 0.8571673007021098911, 0.5150380749100583744 ) ) ;
#87 = ORIENTED_EDGE ( 'NONE', *, *, #249, .F. ) ;
#88 = DIRECTION ( 'NONE',  ( -3.491481338843133355E-15, 1.224646799147353454E-16, -1.000000000000000000 ) ) ;
#89 = CARTESIAN_POINT ( 'NONE',  ( 5.237222008264700033E-14, 1.312289809829118291E-32, 15.00000000000000000 ) ) ;
#90 = PRODUCT ( '41534', '41534', '', ( #85 ) ) ;
#91 = DIRECTION ( 'NONE',  ( 0.0000000000000000000, 1.000000000000000000, 0.0000000000000000000 ) ) ;
#92 = COORDINATED_UNIVERSAL_TIME_OFFSET ( 1, 0, .AHEAD. ) ;
#93 = ORIENTED_EDGE ( 'NONE', *, *, #220, .T. ) ;
#94 = AXIS2_PLACEMENT_3D ( 'NONE', #317, #32, #69 ) ;
#95 = CC_DESIGN_PERSON_AND_ORGANIZATION_ASSIGNMENT ( #99, #130, ( #39 ) ) ;
#96 = AXIS2_PLACEMENT_3D ( 'NONE', #159, #24, #184 ) ;
#97 = DIRECTION ( 'NONE',  ( 0.0000000000000000000, 1.000000000000000000, 0.0000000000000000000 ) ) ;
#98 = DATE_AND_TIME ( #250, #315 ) ;
#99 = PERSON_AND_ORGANIZATION ( #324, #3 ) ;
#100 = EDGE_LOOP ( 'NONE', ( #18, #225, #22, #264 ) ) ;
#101 = DESIGN_CONTEXT ( 'detailed design', #164, 'design' ) ;
#102 = ORIENTED_EDGE ( 'NONE', *, *, #330, .T. ) ;
#103 = CC_DESIGN_PERSON_AND_ORGANIZATION_ASSIGNMENT ( #286, #135, ( #47 ) ) ;
#104 = ORIENTED_EDGE ( 'NONE', *, *, #282, .T. ) ;
#105 = VECTOR ( 'NONE', #211, 1000.000000000000000 ) ;
#106 = CARTESIAN_POINT ( 'NONE',  ( 3.885627057366612426E-15, 1.749999999999991562, 1.051506083298236804 ) ) ;
#107 = DIRECTION ( 'NONE',  ( -3.491481338843133355E-15, 1.224646799147353454E-16, -1.000000000000000000 ) ) ;
#108 = EDGE_LOOP ( 'NONE', ( #283, #234 ) ) ;
#109 = EDGE_CURVE ( 'NONE', #188, #289, #239, .T. ) ;
#110 =( GEOMETRIC_REPRESENTATION_CONTEXT ( 3 ) GLOBAL_UNCERTAINTY_ASSIGNED_CONTEXT ( ( #131 ) ) GLOBAL_UNIT_ASSIGNED_CONTEXT ( ( #214, #53, #25 ) ) REPRESENTATION_CONTEXT ( 'NONE', 'WORKASPACE' ) );
#111 = CIRCLE ( 'NONE', #133, 1.749999999999997780 ) ;
#112 = FACE_OUTER_BOUND ( 'NONE', #160, .T. ) ;
#113 = DIRECTION ( 'NONE',  ( 4.275831445896959482E-31, 1.000000000000000000, 1.224646799147353454E-16 ) ) ;
#114 = ADVANCED_FACE ( 'NONE', ( #62 ), #200, .T. ) ;
#115 = PERSON_AND_ORGANIZATION_ROLE ( 'creator' ) ;
#116 = ORIENTED_EDGE ( 'NONE', *, *, #162, .T. ) ;
#117 = CARTESIAN_POINT ( 'NONE',  ( 1.815570296198429345E-13, -6.368163355566237959E-15, 52.00000000000000000 ) ) ;
#118 = AXIS2_PLACEMENT_3D ( 'NONE', #153, #17, #97 ) ;
#119 = CC_DESIGN_SECURITY_CLASSIFICATION ( #39, ( #47 ) ) ;
#120 = DIRECTION ( 'NONE',  ( -3.491481338843133355E-15, 1.224646799147353454E-16, -1.000000000000000000 ) ) ;
#121 = APPROVAL_STATUS ( 'not_yet_approved' ) ;
#122 = DIRECTION ( 'NONE',  ( 3.491481338843133355E-15, -1.224646799147353454E-16, 1.000000000000000000 ) ) ;
#123 = EDGE_LOOP ( 'NONE', ( #66, #337, #314, #161 ) ) ;
#124 = CARTESIAN_POINT ( 'NONE',  ( 1.164806417733269884E-13, -1.750000000000004219, 51.60000000000000853 ) ) ;
#125 = CC_DESIGN_APPROVAL ( #256, ( #39 ) ) ;
#126 = DATE_AND_TIME ( #207, #177 ) ;
#127 = DIRECTION ( 'NONE',  ( -4.402125587170845076E-31, -1.000000000000000000, -1.239088197126296487E-16 ) ) ;
#128 = PLANE ( 'NONE',  #284 ) ;
#129 = ADVANCED_FACE ( 'NONE', ( #326 ), #128, .F. ) ;
#130 = PERSON_AND_ORGANIZATION_ROLE ( 'classification_officer' ) ;
#131 = UNCERTAINTY_MEASURE_WITH_UNIT (LENGTH_MEASURE( 1.000000000000000082E-05 ), #214, 'distance_accuracy_value', 'NONE');
#132 = DIRECTION ( 'NONE',  ( -3.491481338843133355E-15, 1.224646799147353454E-16, -1.000000000000000000 ) ) ;
#133 = AXIS2_PLACEMENT_3D ( 'NONE', #293, #244, #91 ) ;
#134 = ADVANCED_FACE ( 'NONE', ( #231 ), #258, .T. ) ;
#135 = PERSON_AND_ORGANIZATION_ROLE ( 'design_supplier' ) ;
#136 = DIRECTION ( 'NONE',  ( -2.382254525458686704E-15, -0.7071067811865555663, -0.7071067811865393571 ) ) ;
#137 = CLOSED_SHELL ( 'NONE', ( #294, #139, #173, #134, #197, #129 ) ) ;
#138 = APPROVAL_PERSON_ORGANIZATION ( #147, #256, #10 ) ;
#139 = ADVANCED_FACE ( 'NONE', ( #332 ), #226, .T. ) ;
#140 = FACE_OUTER_BOUND ( 'NONE', #6, .T. ) ;
#141 = EDGE_LOOP ( 'NONE', ( #271, #270 ) ) ;
#142 = DIRECTION ( 'NONE',  ( 0.0000000000000000000, 1.000000000000000000, 0.0000000000000000000 ) ) ;
#143 = FACE_OUTER_BOUND ( 'NONE', #100, .T. ) ;
#144 = AXIS2_PLACEMENT_3D ( 'NONE', #157, #71, #279 ) ;
#145 = EDGE_CURVE ( 'NONE', #308, #298, #269, .T. ) ;
#146 = CARTESIAN_POINT ( 'NONE',  ( 1.815570296198429345E-13, 1.349999999999991651, 52.00000000000000000 ) ) ;
#147 = PERSON_AND_ORGANIZATION ( #324, #3 ) ;
#148 = PERSON_AND_ORGANIZATION ( #324, #3 ) ;
#149 = CARTESIAN_POINT ( 'NONE',  ( 5.237222008264700033E-14, -1.836970198721029983E-15, 15.00000000000000000 ) ) ;
#150 = CIRCLE ( 'NONE', #190, 1.749999999999991784 ) ;
#151 = CARTESIAN_POINT ( 'NONE',  ( 1.815570296198429345E-13, -6.368163355566237959E-15, 52.00000000000000000 ) ) ;
#152 = DATE_TIME_ROLE ( 'classification_date' ) ;
#153 = CARTESIAN_POINT ( 'NONE',  ( 5.237222008264700033E-14, -1.836970198721029983E-15, 15.00000000000000000 ) ) ;
#154 = CC_DESIGN_PERSON_AND_ORGANIZATION_ASSIGNMENT ( #83, #186, ( #47 ) ) ;
#155 = AXIS2_PLACEMENT_3D ( 'NONE', #51, #7, #309 ) ;
#156 = VERTEX_POINT ( 'NONE', #181 ) ;
#157 = CARTESIAN_POINT ( 'NONE',  ( 0.0000000000000000000, 0.0000000000000000000, 0.0000000000000000000 ) ) ;
#158 = PRODUCT_DEFINITION ( 'UNKNOWN', '', #47, #101 ) ;
#159 = CARTESIAN_POINT ( 'NONE',  ( 5.237222008264700033E-14, -1.836970198721029983E-15, 15.00000000000000000 ) ) ;
#160 = EDGE_LOOP ( 'NONE', ( #104, #191, #267, #87 ) ) ;
#161 = ORIENTED_EDGE ( 'NONE', *, *, #166, .F. ) ;
#162 = EDGE_CURVE ( 'NONE', #189, #289, #150, .T. ) ;
#163 = CIRCLE ( 'NONE', #33, 1.349999999999997868 ) ;
#164 = APPLICATION_CONTEXT ( 'configuration controlled 3d designs of mechanical parts and assemblies' ) ;
#165 = MANIFOLD_SOLID_BREP ( 'Corps-Déplacer/Copier1[1]', #137 ) ;
#166 = EDGE_CURVE ( 'NONE', #262, #298, #237, .T. ) ;
#167 = CARTESIAN_POINT ( 'NONE',  ( 1.815570296198429345E-13, 1.349999999999991651, 52.00000000000000000 ) ) ;
#168 = ADVANCED_BREP_SHAPE_REPRESENTATION ( '41534', ( #165, #50, #155 ), #110 ) ;
#169 = AXIS2_PLACEMENT_3D ( 'NONE', #304, #80, #19 ) ;
#170 = CARTESIAN_POINT ( 'NONE',  ( 1.815570296198429345E-13, -6.368163355566237959E-15, 52.00000000000000000 ) ) ;
#171 = VERTEX_POINT ( 'NONE', #146 ) ;
#172 = CARTESIAN_POINT ( 'NONE',  ( 2.823608016493217321E-14, -1.749999999999994893, 15.00000000000000000 ) ) ;
#173 = ADVANCED_FACE ( 'NONE', ( #248 ), #242, .F. ) ;
#174 = DATE_AND_TIME ( #325, #26 ) ;
#175 = CIRCLE ( 'NONE', #218, 1.349999999999997868 ) ;
#176 = CARTESIAN_POINT ( 'NONE',  ( 3.671313867515825917E-15, -1.287723559195155883E-16, 1.051506083298236582 ) ) ;
#177 = LOCAL_TIME ( 9, 22, 14.00000000000000000, #67 ) ;
#178 = CARTESIAN_POINT ( 'NONE',  ( 0.0000000000000000000, 0.0000000000000000000, 0.0000000000000000000 ) ) ;
#179 = LINE ( 'NONE', #278, #322 ) ;
#180 = EDGE_CURVE ( 'NONE', #262, #206, #111, .T. ) ;
#181 = CARTESIAN_POINT ( 'NONE',  ( 5.237222008264700033E-14, 1.749999999999991562, 15.00000000000000000 ) ) ;
#182 = DATE_TIME_ROLE ( 'creation_date' ) ;
#183 = ORIENTED_EDGE ( 'NONE', *, *, #282, .F. ) ;
#184 = DIRECTION ( 'NONE',  ( 0.0000000000000000000, 1.000000000000000000, 0.0000000000000000000 ) ) ;
#185 = CIRCLE ( 'NONE', #169, 1.749999999999993339 ) ;
#186 = PERSON_AND_ORGANIZATION_ROLE ( 'creator' ) ;
#187 = EDGE_CURVE ( 'NONE', #217, #189, #224, .T. ) ;
#188 = VERTEX_POINT ( 'NONE', #272 ) ;
#189 = VERTEX_POINT ( 'NONE', #11 ) ;
#190 = AXIS2_PLACEMENT_3D ( 'NONE', #45, #265, #216 ) ;
#191 = ORIENTED_EDGE ( 'NONE', *, *, #187, .T. ) ;
#192 = DIRECTION ( 'NONE',  ( -4.275831445896959482E-31, -1.000000000000000000, -1.224646799147353454E-16 ) ) ;
#193 = CARTESIAN_POINT ( 'NONE',  ( 1.801604370843057064E-13, 1.749999999999991562, 51.60000000000000853 ) ) ;
#194 = APPLICATION_PROTOCOL_DEFINITION ( 'international standard', 'config_control_design', 1994, #164 ) ;
#195 = AXIS2_PLACEMENT_3D ( 'NONE', #287, #204, #1 ) ;
#196 = DIRECTION ( 'NONE',  ( 3.491481338843133355E-15, -1.224646799147353454E-16, 1.000000000000000000 ) ) ;
#197 = ADVANCED_FACE ( 'NONE', ( #35 ), #266, .T. ) ;
#198 = DIRECTION ( 'NONE',  ( -3.491481338843133355E-15, 1.224646799147353454E-16, -1.000000000000000000 ) ) ;
#199 = FACE_OUTER_BOUND ( 'NONE', #241, .T. ) ;
#200 = CONICAL_SURFACE ( 'NONE', #13, 1.749999999999991784, 1.029744258676649871 ) ;
#201 = PRODUCT_DEFINITION_SHAPE ( 'NONE', 'NONE',  #158 ) ;
#202 = ADVANCED_FACE ( 'NONE', ( #112 ), #219, .T. ) ;
#203 = FACE_OUTER_BOUND ( 'NONE', #82, .T. ) ;
#204 = DIRECTION ( 'NONE',  ( 3.491481338843133355E-15, -1.224646799147353454E-16, 1.000000000000000000 ) ) ;
#205 = ORIENTED_EDGE ( 'NONE', *, *, #166, .T. ) ;
#206 = VERTEX_POINT ( 'NONE', #124 ) ;
#207 = CALENDAR_DATE ( 2021, 3, 9 ) ;
#208 = AXIS2_PLACEMENT_3D ( 'NONE', #117, #88, #142 ) ;
#209 = CARTESIAN_POINT ( 'NONE',  ( 1.815570296198429345E-13, 1.012337853296743348E-32, 52.00000000000000000 ) ) ;
#210 = LOCAL_TIME ( 9, 22, 14.00000000000000000, #77 ) ;
#211 = DIRECTION ( 'NONE',  ( -2.468850131082236550E-15, 0.7071067811865558994, -0.7071067811865392461 ) ) ;
#212 = VECTOR ( 'NONE', #136, 1000.000000000000114 ) ;
#213 = CC_DESIGN_PERSON_AND_ORGANIZATION_ASSIGNMENT ( #148, #115, ( #158 ) ) ;
#214 =( LENGTH_UNIT ( ) NAMED_UNIT ( * ) SI_UNIT ( .MILLI., .METRE. ) );
#215 = VERTEX_POINT ( 'NONE', #38 ) ;
#216 = DIRECTION ( 'NONE',  ( 4.402125587170845076E-31, 1.000000000000000000, 1.239088197126296487E-16 ) ) ;
#217 = VERTEX_POINT ( 'NONE', #172 ) ;
#218 = AXIS2_PLACEMENT_3D ( 'NONE', #151, #319, #63 ) ;
#219 = CYLINDRICAL_SURFACE ( 'NONE', #94, 1.749999999999992450 ) ;
#220 = EDGE_CURVE ( 'NONE', #188, #189, #253, .T. ) ;
#221 = DIRECTION ( 'NONE',  ( -3.491481338843133355E-15, 1.224646799147353454E-16, -1.000000000000000000 ) ) ;
#222 = AXIS2_PLACEMENT_3D ( 'NONE', #44, #75, #230 ) ;
#223 = COORDINATED_UNIVERSAL_TIME_OFFSET ( 1, 0, .AHEAD. ) ;
#224 = LINE ( 'NONE', #320, #303 ) ;
#225 = ORIENTED_EDGE ( 'NONE', *, *, #302, .T. ) ;
#226 = CYLINDRICAL_SURFACE ( 'NONE', #327, 1.749999999999995559 ) ;
#227 = ADVANCED_FACE ( 'NONE', ( #203 ), #281, .T. ) ;
#228 = DIRECTION ( 'NONE',  ( -3.491481338843133355E-15, 1.224646799147353454E-16, -1.000000000000000000 ) ) ;
#229 = ORIENTED_EDGE ( 'NONE', *, *, #290, .T. ) ;
#230 = DIRECTION ( 'NONE',  ( 0.0000000000000000000, 1.000000000000000000, 0.0000000000000000000 ) ) ;
#231 = FACE_OUTER_BOUND ( 'NONE', #48, .T. ) ;
#232 = APPROVAL ( #42, 'UNSPECIFIED' ) ;
#233 = LINE ( 'NONE', #27, #212 ) ;
#234 = ORIENTED_EDGE ( 'NONE', *, *, #145, .T. ) ;
#235 = EDGE_CURVE ( 'NONE', #289, #189, #8, .T. ) ;
#236 = SECURITY_CLASSIFICATION_LEVEL ( 'unclassified' ) ;
#237 = LINE ( 'NONE', #311, #307 ) ;
#238 = AXIS2_PLACEMENT_3D ( 'NONE', #149, #198, #68 ) ;
#239 = LINE ( 'NONE', #5, #46 ) ;
#240 = PERSON_AND_ORGANIZATION_ROLE ( 'design_owner' ) ;
#241 = EDGE_LOOP ( 'NONE', ( #229, #61, #252, #277 ) ) ;
#242 = PLANE ( 'NONE',  #275 ) ;
#243 = DIRECTION ( 'NONE',  ( -3.491481338843133355E-15, 1.224646799147353454E-16, -1.000000000000000000 ) ) ;
#244 = DIRECTION ( 'NONE',  ( -3.491481338843133355E-15, 1.224646799147353454E-16, -1.000000000000000000 ) ) ;
#245 = CARTESIAN_POINT ( 'NONE',  ( 3.671313867515825917E-15, -1.287723559195155883E-16, 1.051506083298236582 ) ) ;
#246 = COORDINATED_UNIVERSAL_TIME_OFFSET ( 1, 0, .AHEAD. ) ;
#247 = CARTESIAN_POINT ( 'NONE',  ( 1.815570296198429345E-13, -6.368163355566237959E-15, 52.00000000000000000 ) ) ;
#248 = FACE_OUTER_BOUND ( 'NONE', #108, .T. ) ;
#249 = EDGE_CURVE ( 'NONE', #156, #289, #179, .T. ) ;
#250 = CALENDAR_DATE ( 2021, 3, 9 ) ;
#251 = VECTOR ( 'NONE', #107, 1000.000000000000000 ) ;
#252 = ORIENTED_EDGE ( 'NONE', *, *, #180, .F. ) ;
#253 = LINE ( 'NONE', #74, #259 ) ;
#254 = DIRECTION ( 'NONE',  ( -3.491481338843133355E-15, 1.224646799147353454E-16, -1.000000000000000000 ) ) ;
#255 = CARTESIAN_POINT ( 'NONE',  ( 5.237222008264700033E-14, 1.749999999999991562, 15.00000000000000000 ) ) ;
#256 = APPROVAL ( #121, 'UNSPECIFIED' ) ;
#257 = APPROVAL_DATE_TIME ( #174, #256 ) ;
#258 = CYLINDRICAL_SURFACE ( 'NONE', #144, 1.749999999999995559 ) ;
#259 = VECTOR ( 'NONE', #328, 1000.000000000000000 ) ;
#260 = DIRECTION ( 'NONE',  ( 4.402125587170845076E-31, 1.000000000000000000, 1.239088197126296487E-16 ) ) ;
#261 = EDGE_CURVE ( 'NONE', #206, #262, #64, .T. ) ;
#262 = VERTEX_POINT ( 'NONE', #193 ) ;
#263 = DATE_AND_TIME ( #333, #210 ) ;
#264 = ORIENTED_EDGE ( 'NONE', *, *, #162, .F. ) ;
#265 = DIRECTION ( 'NONE',  ( -3.491481338843133355E-15, 1.224646799147353454E-16, -1.000000000000000000 ) ) ;
#266 = CONICAL_SURFACE ( 'NONE', #208, 1.349999999999997868, 0.7853981633974599363 ) ;
#267 = ORIENTED_EDGE ( 'NONE', *, *, #235, .F. ) ;
#268 = EDGE_CURVE ( 'NONE', #171, #262, #312, .T. ) ;
#269 = CIRCLE ( 'NONE', #118, 1.749999999999993339 ) ;
#270 = ORIENTED_EDGE ( 'NONE', *, *, #330, .F. ) ;
#271 = ORIENTED_EDGE ( 'NONE', *, *, #290, .F. ) ;
#272 = CARTESIAN_POINT ( 'NONE',  ( 0.0000000000000000000, 0.0000000000000000000, 0.0000000000000000000 ) ) ;
#273 = ORIENTED_EDGE ( 'NONE', *, *, #109, .T. ) ;
#274 = CYLINDRICAL_SURFACE ( 'NONE', #20, 1.749999999999992450 ) ;
#275 = AXIS2_PLACEMENT_3D ( 'NONE', #89, #196, #192 ) ;
#276 = DIRECTION ( 'NONE',  ( 0.0000000000000000000, 1.000000000000000000, 0.0000000000000000000 ) ) ;
#277 = ORIENTED_EDGE ( 'NONE', *, *, #268, .F. ) ;
#278 = CARTESIAN_POINT ( 'NONE',  ( 7.482705030319646470E-31, 1.749999999999992450, 2.143131898507859176E-16 ) ) ;
#279 = DIRECTION ( 'NONE',  ( 4.275831445896959482E-31, 1.000000000000000000, 1.224646799147353454E-16 ) ) ;
#280 = ORIENTED_EDGE ( 'NONE', *, *, #261, .T. ) ;
#281 = CONICAL_SURFACE ( 'NONE', #297, 1.749999999999991784, 1.029744258676649871 ) ;
#282 = EDGE_CURVE ( 'NONE', #156, #217, #185, .T. ) ;
#283 = ORIENTED_EDGE ( 'NONE', *, *, #23, .T. ) ;
#284 = AXIS2_PLACEMENT_3D ( 'NONE', #209, #254, #49 ) ;
#285 = LOCAL_TIME ( 9, 22, 14.00000000000000000, #246 ) ;
#286 = PERSON_AND_ORGANIZATION ( #324, #3 ) ;
#287 = CARTESIAN_POINT ( 'NONE',  ( 5.237222008264700033E-14, 1.312289809829118291E-32, 15.00000000000000000 ) ) ;
#288 = PERSON_AND_ORGANIZATION ( #324, #3 ) ;
#289 = VERTEX_POINT ( 'NONE', #106 ) ;
#290 = EDGE_CURVE ( 'NONE', #171, #215, #163, .T. ) ;
#291 = PLANE ( 'NONE',  #195 ) ;
#292 = ORIENTED_EDGE ( 'NONE', *, *, #220, .F. ) ;
#293 = CARTESIAN_POINT ( 'NONE',  ( 1.801604370843057064E-13, -6.319177483600344531E-15, 51.60000000000000853 ) ) ;
#294 = ADVANCED_FACE ( 'NONE', ( #199 ), #59, .T. ) ;
#295 = PERSON_AND_ORGANIZATION ( #324, #3 ) ;
#296 = PERSON_AND_ORGANIZATION ( #324, #3 ) ;
#297 = AXIS2_PLACEMENT_3D ( 'NONE', #41, #122, #127 ) ;
#298 = VERTEX_POINT ( 'NONE', #255 ) ;
#299 = ORIENTED_EDGE ( 'NONE', *, *, #268, .T. ) ;
#300 = DIRECTION ( 'NONE',  ( -3.491481338843133355E-15, 1.224646799147353454E-16, -1.000000000000000000 ) ) ;
#301 = APPROVAL_ROLE ( '' ) ;
#302 = EDGE_CURVE ( 'NONE', #217, #156, #84, .T. ) ;
#303 = VECTOR ( 'NONE', #30, 1000.000000000000000 ) ;
#304 = CARTESIAN_POINT ( 'NONE',  ( 5.237222008264700033E-14, -1.836970198721029983E-15, 15.00000000000000000 ) ) ;
#305 = ADVANCED_FACE ( 'NONE', ( #143 ), #274, .T. ) ;
#306 = APPROVAL_DATE_TIME ( #263, #232 ) ;
#307 = VECTOR ( 'NONE', #132, 1000.000000000000000 ) ;
#308 = VERTEX_POINT ( 'NONE', #34 ) ;
#309 = DIRECTION ( 'NONE',  ( 1.000000000000000000, 0.0000000000000000000, 0.0000000000000000000 ) ) ;
#310 = CC_DESIGN_DATE_AND_TIME_ASSIGNMENT ( #126, #152, ( #39 ) ) ;
#311 = CARTESIAN_POINT ( 'NONE',  ( 7.482705030319659607E-31, 1.749999999999995559, 2.143131898507863121E-16 ) ) ;
#312 = LINE ( 'NONE', #167, #105 ) ;
#313 = ORIENTED_EDGE ( 'NONE', *, *, #145, .F. ) ;
#314 = ORIENTED_EDGE ( 'NONE', *, *, #23, .F. ) ;
#315 = LOCAL_TIME ( 9, 22, 14.00000000000000000, #92 ) ;
#316 = APPLICATION_PROTOCOL_DEFINITION ( 'international standard', 'config_control_design', 1994, #329 ) ;
#317 = CARTESIAN_POINT ( 'NONE',  ( 0.0000000000000000000, 0.0000000000000000000, 0.0000000000000000000 ) ) ;
#318 = CC_DESIGN_DATE_AND_TIME_ASSIGNMENT ( #98, #182, ( #158 ) ) ;
#319 = DIRECTION ( 'NONE',  ( -3.491481338843133355E-15, 1.224646799147353454E-16, -1.000000000000000000 ) ) ;
#320 = CARTESIAN_POINT ( 'NONE',  ( 2.143131898507851534E-16, -1.749999999999992450, -2.143131898507866818E-16 ) ) ;
#321 = DIRECTION ( 'NONE',  ( -4.402125587170845076E-31, -1.000000000000000000, -1.239088197126296487E-16 ) ) ;
#322 = VECTOR ( 'NONE', #331, 1000.000000000000000 ) ;
#323 = APPROVAL_PERSON_ORGANIZATION ( #295, #54, #31 ) ;
#324 = PERSON ( 'UNSPECIFIED', 'UNSPECIFIED', 'UNSPECIFIED', ('UNSPECIFIED'), ('UNSPECIFIED'), ('UNSPECIFIED') ) ;
#325 = CALENDAR_DATE ( 2021, 3, 9 ) ;
#326 = FACE_OUTER_BOUND ( 'NONE', #141, .T. ) ;
#327 = AXIS2_PLACEMENT_3D ( 'NONE', #178, #300, #76 ) ;
#328 = DIRECTION ( 'NONE',  ( 1.798245827342159528E-15, -0.8571673007021100021, 0.5150380749100580413 ) ) ;
#329 = APPLICATION_CONTEXT ( 'configuration controlled 3d designs of mechanical parts and assemblies' ) ;
#330 = EDGE_CURVE ( 'NONE', #215, #171, #175, .T. ) ;
#331 = DIRECTION ( 'NONE',  ( -3.491481338843133355E-15, 1.224646799147353454E-16, -1.000000000000000000 ) ) ;
#332 = FACE_OUTER_BOUND ( 'NONE', #123, .T. ) ;
#333 = CALENDAR_DATE ( 2021, 3, 9 ) ;
#334 = ORIENTED_EDGE ( 'NONE', *, *, #302, .F. ) ;
#335 = CIRCLE ( 'NONE', #96, 1.749999999999993339 ) ;
#336 = LINE ( 'NONE', #57, #251 ) ;
#337 = ORIENTED_EDGE ( 'NONE', *, *, #15, .T. ) ;
ENDSEC;
END-ISO-10303-21;
