ISO-10303-21;
HEADER;
FILE_DESCRIPTION (( 'STEP AP203' ),
    '1' );
FILE_NAME ('41515.step',
    '2021-09-03T07:22:14',
    ( '' ),
    ( '' ),
    'SwSTEP 2.0',
    'SolidWorks 2019',
    '' );
FILE_SCHEMA (( 'CONFIG_CONTROL_DESIGN' ));
ENDSEC;

DATA;
#1 = CARTESIAN_POINT ( 'NONE',  ( 0.0000000000000000000, 0.0000000000000000000, 0.0000000000000000000 ) ) ;
#2 = ORIENTED_EDGE ( 'NONE', *, *, #125, .F. ) ;
#3 = CIRCLE ( 'NONE', #273, 2.599999999999998312 ) ;
#4 = DIRECTION ( 'NONE',  ( 0.0000000000000000000, 1.000000000000000000, 0.0000000000000000000 ) ) ;
#5 = COORDINATED_UNIVERSAL_TIME_OFFSET ( 1, 0, .AHEAD. ) ;
#6 = ORIENTED_EDGE ( 'NONE', *, *, #264, .F. ) ;
#7 = ADVANCED_FACE ( 'NONE', ( #286 ), #197, .T. ) ;
#8 = VECTOR ( 'NONE', #289, 1000.000000000000000 ) ;
#9 = DATE_AND_TIME ( #145, #26 ) ;
#10 = LINE ( 'NONE', #215, #137 ) ;
#11 = AXIS2_PLACEMENT_3D ( 'NONE', #1, #229, #56 ) ;
#12 = AXIS2_PLACEMENT_3D ( 'NONE', #77, #21, #105 ) ;
#13 = COORDINATED_UNIVERSAL_TIME_OFFSET ( 1, 0, .AHEAD. ) ;
#14 = VERTEX_POINT ( 'NONE', #25 ) ;
#15 = CC_DESIGN_DATE_AND_TIME_ASSIGNMENT ( #9, #250, ( #316 ) ) ;
#16 = CARTESIAN_POINT ( 'NONE',  ( 1.411024377145992714E-30, 3.299999999999991385, 4.041334437186255156E-16 ) ) ;
#17 = PRODUCT_DEFINITION_SHAPE ( 'NONE', 'NONE',  #316 ) ;
#18 = ORIENTED_EDGE ( 'NONE', *, *, #306, .T. ) ;
#19 = DATE_TIME_ROLE ( 'classification_date' ) ;
#20 = ADVANCED_FACE ( 'NONE', ( #135 ), #40, .T. ) ;
#21 = DIRECTION ( 'NONE',  ( 3.491481338843133355E-15, -1.224646799147353207E-16, 1.000000000000000000 ) ) ;
#22 = ORIENTED_EDGE ( 'NONE', *, *, #188, .T. ) ;
#23 = ADVANCED_BREP_SHAPE_REPRESENTATION ( '41515', ( #55, #275, #33 ), #89 ) ;
#24 = PERSON_AND_ORGANIZATION ( #110, #132 ) ;
#25 = CARTESIAN_POINT ( 'NONE',  ( 0.0000000000000000000, 0.0000000000000000000, 0.0000000000000000000 ) ) ;
#26 = LOCAL_TIME ( 9, 22, 14.00000000000000000, #13 ) ;
#27 = CARTESIAN_POINT ( 'NONE',  ( 2.444036937190193601E-13, -8.572527594031472993E-15, 70.00000000000000000 ) ) ;
#28 = ORIENTED_EDGE ( 'NONE', *, *, #185, .F. ) ;
#29 = EDGE_CURVE ( 'NONE', #199, #209, #180, .T. ) ;
#30 = DIRECTION ( 'NONE',  ( 0.0000000000000000000, 1.000000000000000000, 0.0000000000000000000 ) ) ;
#31 = APPROVAL_DATE_TIME ( #136, #153 ) ;
#32 = DIRECTION ( 'NONE',  ( 0.0000000000000000000, 1.000000000000000000, 0.0000000000000000000 ) ) ;
#33 = AXIS2_PLACEMENT_3D ( 'NONE', #308, #140, #84 ) ;
#34 = DIRECTION ( 'NONE',  ( -3.491481338843133355E-15, 1.224646799147353207E-16, -1.000000000000000000 ) ) ;
#35 = DIRECTION ( 'NONE',  ( -3.491481338843133355E-15, 1.224646799147353207E-16, -1.000000000000000000 ) ) ;
#36 = CYLINDRICAL_SURFACE ( 'NONE', #313, 3.299999999999995381 ) ;
#37 = PERSON_AND_ORGANIZATION ( #110, #132 ) ;
#38 = APPROVAL_STATUS ( 'not_yet_approved' ) ;
#39 = CARTESIAN_POINT ( 'NONE',  ( 8.030407079339205455E-14, -2.816687638038912352E-15, 23.00000000000000000 ) ) ;
#40 = CONICAL_SURFACE ( 'NONE', #131, 2.599999999999998312, 0.7853981633974439491 ) ;
#41 = CC_DESIGN_APPROVAL ( #153, ( #298 ) ) ;
#42 = CARTESIAN_POINT ( 'NONE',  ( 4.401769334407242200E-14, -3.299999999999994493, 23.00000000000000000 ) ) ;
#43 = DIRECTION ( 'NONE',  ( 0.0000000000000000000, 1.000000000000000000, 0.0000000000000000000 ) ) ;
#44 = ADVANCED_FACE ( 'NONE', ( #160 ), #83, .T. ) ;
#45 = PLANE ( 'NONE',  #104 ) ;
#46 = FACE_OUTER_BOUND ( 'NONE', #246, .T. ) ;
#47 = CIRCLE ( 'NONE', #51, 3.299999999999990052 ) ;
#48 = EDGE_LOOP ( 'NONE', ( #230, #2 ) ) ;
#49 = DIRECTION ( 'NONE',  ( 0.0000000000000000000, 1.000000000000000000, 0.0000000000000000000 ) ) ;
#50 = ADVANCED_FACE ( 'NONE', ( #322 ), #36, .T. ) ;
#51 = AXIS2_PLACEMENT_3D ( 'NONE', #309, #260, #237 ) ;
#52 =( NAMED_UNIT ( * ) SI_UNIT ( $, .STERADIAN. ) SOLID_ANGLE_UNIT ( ) );
#53 = ORIENTED_EDGE ( 'NONE', *, *, #91, .T. ) ;
#54 = ORIENTED_EDGE ( 'NONE', *, *, #306, .F. ) ;
#55 = MANIFOLD_SOLID_BREP ( 'Corps-Déplacer/Copier1[1]', #221 ) ;
#56 = DIRECTION ( 'NONE',  ( 4.275831445896958607E-31, 1.000000000000000000, 1.224646799147353207E-16 ) ) ;
#57 = ORIENTED_EDGE ( 'NONE', *, *, #220, .F. ) ;
#58 = LOCAL_TIME ( 9, 22, 14.00000000000000000, #5 ) ;
#59 = CC_DESIGN_PERSON_AND_ORGANIZATION_ASSIGNMENT ( #231, #99, ( #227 ) ) ;
#60 = EDGE_LOOP ( 'NONE', ( #207, #257, #122, #94 ) ) ;
#61 = DIRECTION ( 'NONE',  ( -4.275831445896958607E-31, -1.000000000000000000, -1.224646799147353207E-16 ) ) ;
#62 = CARTESIAN_POINT ( 'NONE',  ( 1.411024377145994291E-30, 3.299999999999995381, 4.041334437186259593E-16 ) ) ;
#63 = VECTOR ( 'NONE', #34, 1000.000000000000000 ) ;
#64 = LINE ( 'NONE', #62, #63 ) ;
#65 = ORIENTED_EDGE ( 'NONE', *, *, #264, .T. ) ;
#66 = SECURITY_CLASSIFICATION_LEVEL ( 'unclassified' ) ;
#67 = DIRECTION ( 'NONE',  ( -3.491481338843133355E-15, 1.224646799147353207E-16, -1.000000000000000000 ) ) ;
#68 = DIRECTION ( 'NONE',  ( -3.491481338843133355E-15, 1.224646799147353207E-16, -1.000000000000000000 ) ) ;
#69 = DIRECTION ( 'NONE',  ( -3.491481338843133355E-15, 1.224646799147353207E-16, -1.000000000000000000 ) ) ;
#70 = COORDINATED_UNIVERSAL_TIME_OFFSET ( 1, 0, .AHEAD. ) ;
#71 = DIRECTION ( 'NONE',  ( 0.0000000000000000000, 1.000000000000000000, 0.0000000000000000000 ) ) ;
#72 = CARTESIAN_POINT ( 'NONE',  ( 7.327182451034199435E-15, 3.299999999999989608, 1.982840042790964930 ) ) ;
#73 = PRODUCT ( '41515', '41515', '', ( #206 ) ) ;
#74 = CARTESIAN_POINT ( 'NONE',  ( 8.030407079339205455E-14, -2.816687638038912352E-15, 23.00000000000000000 ) ) ;
#75 = ADVANCED_FACE ( 'NONE', ( #152 ), #324, .T. ) ;
#76 = CC_DESIGN_APPROVAL ( #178, ( #227 ) ) ;
#77 = CARTESIAN_POINT ( 'NONE',  ( 8.030407079339205455E-14, 2.474603641392055747E-32, 23.00000000000000000 ) ) ;
#78 = EDGE_LOOP ( 'NONE', ( #327, #22, #259 ) ) ;
#79 = ORIENTED_EDGE ( 'NONE', *, *, #91, .F. ) ;
#80 = CALENDAR_DATE ( 2021, 3, 9 ) ;
#81 = EDGE_CURVE ( 'NONE', #186, #329, #261, .T. ) ;
#82 = AXIS2_PLACEMENT_3D ( 'NONE', #203, #98, #49 ) ;
#83 = PLANE ( 'NONE',  #226 ) ;
#84 = DIRECTION ( 'NONE',  ( 1.000000000000000000, 0.0000000000000000000, 0.0000000000000000000 ) ) ;
#85 = VERTEX_POINT ( 'NONE', #128 ) ;
#86 = ADVANCED_FACE ( 'NONE', ( #252 ), #111, .T. ) ;
#87 = DIRECTION ( 'NONE',  ( -3.491481338843133355E-15, 1.224646799147353207E-16, -1.000000000000000000 ) ) ;
#88 = APPROVAL_ROLE ( '' ) ;
#89 =( GEOMETRIC_REPRESENTATION_CONTEXT ( 3 ) GLOBAL_UNCERTAINTY_ASSIGNED_CONTEXT ( ( #200 ) ) GLOBAL_UNIT_ASSIGNED_CONTEXT ( ( #262, #235, #52 ) ) REPRESENTATION_CONTEXT ( 'NONE', 'WORKASPACE' ) );
#90 = CARTESIAN_POINT ( 'NONE',  ( 2.444036937190193601E-13, -8.572527594031472993E-15, 70.00000000000000000 ) ) ;
#91 = EDGE_CURVE ( 'NONE', #186, #312, #279, .T. ) ;
#92 = CARTESIAN_POINT ( 'NONE',  ( 6.923049007315572342E-15, -2.428278711625155546E-16, 1.982840042790964485 ) ) ;
#93 = PERSON_AND_ORGANIZATION_ROLE ( 'design_owner' ) ;
#94 = ORIENTED_EDGE ( 'NONE', *, *, #29, .F. ) ;
#95 = PERSON_AND_ORGANIZATION ( #110, #132 ) ;
#96 = PERSON_AND_ORGANIZATION_ROLE ( 'classification_officer' ) ;
#97 = AXIS2_PLACEMENT_3D ( 'NONE', #249, #271, #241 ) ;
#98 = DIRECTION ( 'NONE',  ( -3.491481338843133355E-15, 1.224646799147353207E-16, -1.000000000000000000 ) ) ;
#99 = PERSON_AND_ORGANIZATION_ROLE ( 'design_supplier' ) ;
#100 = ADVANCED_FACE ( 'NONE', ( #46 ), #334, .T. ) ;
#101 = ORIENTED_EDGE ( 'NONE', *, *, #143, .F. ) ;
#102 = ORIENTED_EDGE ( 'NONE', *, *, #245, .F. ) ;
#103 = EDGE_LOOP ( 'NONE', ( #183, #57 ) ) ;
#104 = AXIS2_PLACEMENT_3D ( 'NONE', #255, #325, #127 ) ;
#105 = DIRECTION ( 'NONE',  ( -4.275831445896958607E-31, -1.000000000000000000, -1.224646799147353207E-16 ) ) ;
#106 = DIRECTION ( 'NONE',  ( 0.0000000000000000000, 1.000000000000000000, 0.0000000000000000000 ) ) ;
#107 = ORIENTED_EDGE ( 'NONE', *, *, #245, .T. ) ;
#108 = AXIS2_PLACEMENT_3D ( 'NONE', #130, #232, #208 ) ;
#109 = EDGE_CURVE ( 'NONE', #85, #312, #47, .T. ) ;
#110 = PERSON ( 'UNSPECIFIED', 'UNSPECIFIED', 'UNSPECIFIED', ('UNSPECIFIED'), ('UNSPECIFIED'), ('UNSPECIFIED') ) ;
#111 = CONICAL_SURFACE ( 'NONE', #124, 3.299999999999990052, 1.029744258676649871 ) ;
#112 = DIRECTION ( 'NONE',  ( -3.491481338843133355E-15, 1.224646799147353207E-16, -1.000000000000000000 ) ) ;
#113 = CARTESIAN_POINT ( 'NONE',  ( 0.0000000000000000000, 0.0000000000000000000, 0.0000000000000000000 ) ) ;
#114 = PERSON_AND_ORGANIZATION ( #110, #132 ) ;
#115 = EDGE_LOOP ( 'NONE', ( #54, #276, #323, #311 ) ) ;
#116 = LINE ( 'NONE', #141, #205 ) ;
#117 = CIRCLE ( 'NONE', #222, 3.299999999999992273 ) ;
#118 = CARTESIAN_POINT ( 'NONE',  ( 4.041334437186245788E-16, -3.299999999999995381, -4.041334437186273891E-16 ) ) ;
#119 = APPROVAL_ROLE ( '' ) ;
#120 = CC_DESIGN_PERSON_AND_ORGANIZATION_ASSIGNMENT ( #282, #129, ( #227 ) ) ;
#121 = CARTESIAN_POINT ( 'NONE',  ( 8.030407079339205455E-14, 3.299999999999989608, 23.00000000000000000 ) ) ;
#122 = ORIENTED_EDGE ( 'NONE', *, *, #143, .T. ) ;
#123 = CARTESIAN_POINT ( 'NONE',  ( 1.615359972313291502E-13, -3.299999999999994937, 23.00000000000000000 ) ) ;
#124 = AXIS2_PLACEMENT_3D ( 'NONE', #156, #295, #172 ) ;
#125 = EDGE_CURVE ( 'NONE', #162, #177, #3, .T. ) ;
#126 = APPROVAL_STATUS ( 'not_yet_approved' ) ;
#127 = DIRECTION ( 'NONE',  ( 4.275831445896958607E-31, 1.000000000000000000, 1.224646799147353207E-16 ) ) ;
#128 = CARTESIAN_POINT ( 'NONE',  ( 6.923049007315570764E-15, -3.299999999999990496, 1.982840042790964041 ) ) ;
#129 = PERSON_AND_ORGANIZATION_ROLE ( 'creator' ) ;
#130 = CARTESIAN_POINT ( 'NONE',  ( 6.923049007315572342E-15, -2.428278711625155546E-16, 1.982840042790964485 ) ) ;
#131 = AXIS2_PLACEMENT_3D ( 'NONE', #27, #336, #106 ) ;
#132 = ORGANIZATION ( 'UNSPECIFIED', 'UNSPECIFIED', '' ) ;
#133 = EDGE_CURVE ( 'NONE', #216, #161, #117, .T. ) ;
#134 = APPROVAL_DATE_TIME ( #182, #178 ) ;
#135 = FACE_OUTER_BOUND ( 'NONE', #219, .T. ) ;
#136 = DATE_AND_TIME ( #288, #58 ) ;
#137 = VECTOR ( 'NONE', #87, 1000.000000000000000 ) ;
#138 = ORIENTED_EDGE ( 'NONE', *, *, #303, .T. ) ;
#139 = ORIENTED_EDGE ( 'NONE', *, *, #292, .F. ) ;
#140 = DIRECTION ( 'NONE',  ( 0.0000000000000000000, 0.0000000000000000000, 1.000000000000000000 ) ) ;
#141 = CARTESIAN_POINT ( 'NONE',  ( 2.444036937190193601E-13, 2.599999999999989431, 70.00000000000000000 ) ) ;
#142 = FACE_OUTER_BOUND ( 'NONE', #266, .T. ) ;
#143 = EDGE_CURVE ( 'NONE', #177, #209, #116, .T. ) ;
#144 = CARTESIAN_POINT ( 'NONE',  ( 8.030407079339205455E-14, -2.816687638038912352E-15, 23.00000000000000000 ) ) ;
#145 = CALENDAR_DATE ( 2021, 3, 9 ) ;
#146 = LINE ( 'NONE', #118, #254 ) ;
#147 = EDGE_CURVE ( 'NONE', #162, #199, #315, .T. ) ;
#148 = AXIS2_PLACEMENT_3D ( 'NONE', #274, #166, #193 ) ;
#149 = AXIS2_PLACEMENT_3D ( 'NONE', #39, #247, #71 ) ;
#150 = FACE_OUTER_BOUND ( 'NONE', #332, .T. ) ;
#151 = PERSON_AND_ORGANIZATION_ROLE ( 'creator' ) ;
#152 = FACE_OUTER_BOUND ( 'NONE', #60, .T. ) ;
#153 = APPROVAL ( #38, 'UNSPECIFIED' ) ;
#154 = LOCAL_TIME ( 9, 22, 14.00000000000000000, #70 ) ;
#155 = DATE_AND_TIME ( #296, #202 ) ;
#156 = CARTESIAN_POINT ( 'NONE',  ( 6.923049007315572342E-15, -2.428278711625155546E-16, 1.982840042790964485 ) ) ;
#157 = EDGE_CURVE ( 'NONE', #312, #85, #304, .T. ) ;
#158 = PRODUCT_RELATED_PRODUCT_CATEGORY ( 'detail', '', ( #73 ) ) ;
#159 = VECTOR ( 'NONE', #194, 1000.000000000000000 ) ;
#160 = FACE_OUTER_BOUND ( 'NONE', #103, .T. ) ;
#161 = VERTEX_POINT ( 'NONE', #319 ) ;
#162 = VERTEX_POINT ( 'NONE', #192 ) ;
#163 = AXIS2_PLACEMENT_3D ( 'NONE', #223, #326, #189 ) ;
#164 = PLANE ( 'NONE',  #12 ) ;
#165 = VECTOR ( 'NONE', #225, 1000.000000000000000 ) ;
#166 = DIRECTION ( 'NONE',  ( -3.491481338843133355E-15, 1.224646799147353207E-16, -1.000000000000000000 ) ) ;
#167 = ORIENTED_EDGE ( 'NONE', *, *, #185, .T. ) ;
#168 = CARTESIAN_POINT ( 'NONE',  ( 1.615359972313290492E-13, -3.300000000000006928, 69.29999999999999716 ) ) ;
#169 = PERSON_AND_ORGANIZATION ( #110, #132 ) ;
#170 = LOCAL_TIME ( 9, 22, 14.00000000000000000, #302 ) ;
#171 = CARTESIAN_POINT ( 'NONE',  ( 2.419596567818291352E-13, 3.299999999999989608, 69.29999999999999716 ) ) ;
#172 = DIRECTION ( 'NONE',  ( -4.668921077302404411E-31, -1.000000000000000000, -1.314184451497585203E-16 ) ) ;
#173 = CARTESIAN_POINT ( 'NONE',  ( 2.419596567818291352E-13, -8.486802318091157127E-15, 69.29999999999999716 ) ) ;
#174 = DIRECTION ( 'NONE',  ( 0.0000000000000000000, 1.000000000000000000, 0.0000000000000000000 ) ) ;
#175 = DESIGN_CONTEXT ( 'detailed design', #190, 'design' ) ;
#176 = CC_DESIGN_APPROVAL ( #224, ( #316 ) ) ;
#177 = VERTEX_POINT ( 'NONE', #269 ) ;
#178 = APPROVAL ( #258, 'UNSPECIFIED' ) ;
#179 = CARTESIAN_POINT ( 'NONE',  ( 2.419596567818291352E-13, -8.486802318091157127E-15, 69.29999999999999716 ) ) ;
#180 = CIRCLE ( 'NONE', #243, 3.299999999999998046 ) ;
#181 = AXIS2_PLACEMENT_3D ( 'NONE', #173, #68, #43 ) ;
#182 = DATE_AND_TIME ( #80, #170 ) ;
#183 = ORIENTED_EDGE ( 'NONE', *, *, #81, .F. ) ;
#184 = ORIENTED_EDGE ( 'NONE', *, *, #272, .T. ) ;
#185 = EDGE_CURVE ( 'NONE', #329, #85, #10, .T. ) ;
#186 = VERTEX_POINT ( 'NONE', #121 ) ;
#187 = DIRECTION ( 'NONE',  ( -3.491481338843133355E-15, 1.224646799147353207E-16, -1.000000000000000000 ) ) ;
#188 = EDGE_CURVE ( 'NONE', #14, #312, #196, .T. ) ;
#189 = DIRECTION ( 'NONE',  ( 0.0000000000000000000, 1.000000000000000000, 0.0000000000000000000 ) ) ;
#190 = APPLICATION_CONTEXT ( 'configuration controlled 3d designs of mechanical parts and assemblies' ) ;
#191 = AXIS2_PLACEMENT_3D ( 'NONE', #92, #35, #242 ) ;
#192 = CARTESIAN_POINT ( 'NONE',  ( 2.435429460561727050E-13, -2.600000000000006750, 70.00000000000000000 ) ) ;
#193 = DIRECTION ( 'NONE',  ( 0.0000000000000000000, 1.000000000000000000, 0.0000000000000000000 ) ) ;
#194 = DIRECTION ( 'NONE',  ( 1.798245827342159528E-15, -0.8571673007021100021, 0.5150380749100580413 ) ) ;
#195 = CIRCLE ( 'NONE', #149, 3.299999999999992273 ) ;
#196 = LINE ( 'NONE', #72, #285 ) ;
#197 = CYLINDRICAL_SURFACE ( 'NONE', #11, 3.299999999999995381 ) ;
#198 = ORIENTED_EDGE ( 'NONE', *, *, #147, .T. ) ;
#199 = VERTEX_POINT ( 'NONE', #168 ) ;
#200 = UNCERTAINTY_MEASURE_WITH_UNIT (LENGTH_MEASURE( 1.000000000000000082E-05 ), #262, 'distance_accuracy_value', 'NONE');
#201 = PERSON_AND_ORGANIZATION ( #110, #132 ) ;
#202 = LOCAL_TIME ( 9, 22, 14.00000000000000000, #253 ) ;
#203 = CARTESIAN_POINT ( 'NONE',  ( 2.444036937190193601E-13, -8.572527594031472993E-15, 70.00000000000000000 ) ) ;
#204 = LINE ( 'NONE', #300, #159 ) ;
#205 = VECTOR ( 'NONE', #211, 1000.000000000000000 ) ;
#206 = MECHANICAL_CONTEXT ( 'NONE', #281, 'mechanical' ) ;
#207 = ORIENTED_EDGE ( 'NONE', *, *, #147, .F. ) ;
#208 = DIRECTION ( 'NONE',  ( -4.668921077302404411E-31, -1.000000000000000000, -1.314184451497585203E-16 ) ) ;
#209 = VERTEX_POINT ( 'NONE', #171 ) ;
#210 = CC_DESIGN_PERSON_AND_ORGANIZATION_ASSIGNMENT ( #201, #96, ( #298 ) ) ;
#211 = DIRECTION ( 'NONE',  ( -2.468850131082275599E-15, 0.7071067811865445751, -0.7071067811865504593 ) ) ;
#212 = CARTESIAN_POINT ( 'NONE',  ( 7.327182451034199435E-15, 3.299999999999989608, 1.982840042790964930 ) ) ;
#213 = APPROVAL_PERSON_ORGANIZATION ( #24, #178, #331 ) ;
#214 = CALENDAR_DATE ( 2021, 3, 9 ) ;
#215 = CARTESIAN_POINT ( 'NONE',  ( 4.041334437186240858E-16, -3.299999999999991385, -4.041334437186268961E-16 ) ) ;
#216 = VERTEX_POINT ( 'NONE', #123 ) ;
#217 = CARTESIAN_POINT ( 'NONE',  ( 0.0000000000000000000, 0.0000000000000000000, 0.0000000000000000000 ) ) ;
#218 = DIRECTION ( 'NONE',  ( 1.903218546456021928E-15, 0.8571673007021098911, 0.5150380749100583744 ) ) ;
#219 = EDGE_LOOP ( 'NONE', ( #138, #198, #102, #101 ) ) ;
#220 = EDGE_CURVE ( 'NONE', #329, #186, #195, .T. ) ;
#221 = CLOSED_SHELL ( 'NONE', ( #20, #50, #267, #7, #75, #256 ) ) ;
#222 = AXIS2_PLACEMENT_3D ( 'NONE', #144, #187, #30 ) ;
#223 = CARTESIAN_POINT ( 'NONE',  ( 8.030407079339205455E-14, -2.816687638038912352E-15, 23.00000000000000000 ) ) ;
#224 = APPROVAL ( #126, 'UNSPECIFIED' ) ;
#225 = DIRECTION ( 'NONE',  ( -3.491481338843133355E-15, 1.224646799147353207E-16, -1.000000000000000000 ) ) ;
#226 = AXIS2_PLACEMENT_3D ( 'NONE', #240, #320, #61 ) ;
#227 = PRODUCT_DEFINITION_FORMATION_WITH_SPECIFIED_SOURCE ( 'ANY', '', #73, .NOT_KNOWN. ) ;
#228 = DIRECTION ( 'NONE',  ( 4.275831445896958607E-31, 1.000000000000000000, 1.224646799147353207E-16 ) ) ;
#229 = DIRECTION ( 'NONE',  ( -3.491481338843133355E-15, 1.224646799147353207E-16, -1.000000000000000000 ) ) ;
#230 = ORIENTED_EDGE ( 'NONE', *, *, #303, .F. ) ;
#231 = PERSON_AND_ORGANIZATION ( #110, #132 ) ;
#232 = DIRECTION ( 'NONE',  ( 3.491481338843133355E-15, -1.224646799147353207E-16, 1.000000000000000000 ) ) ;
#233 = CIRCLE ( 'NONE', #148, 2.599999999999998312 ) ;
#234 = DIRECTION ( 'NONE',  ( -3.491481338843133355E-15, 1.224646799147353207E-16, -1.000000000000000000 ) ) ;
#235 =( NAMED_UNIT ( * ) PLANE_ANGLE_UNIT ( ) SI_UNIT ( $, .RADIAN. ) );
#236 = CC_DESIGN_PERSON_AND_ORGANIZATION_ASSIGNMENT ( #169, #151, ( #316 ) ) ;
#237 = DIRECTION ( 'NONE',  ( 4.668921077302404411E-31, 1.000000000000000000, 1.314184451497585203E-16 ) ) ;
#238 = CYLINDRICAL_SURFACE ( 'NONE', #333, 3.299999999999991385 ) ;
#239 = CARTESIAN_POINT ( 'NONE',  ( 2.447221018867977068E-13, -2.600000000000006750, 70.00000000000000000 ) ) ;
#240 = CARTESIAN_POINT ( 'NONE',  ( 8.030407079339205455E-14, 2.474603641392055747E-32, 23.00000000000000000 ) ) ;
#241 = DIRECTION ( 'NONE',  ( 4.275831445896958607E-31, 1.000000000000000000, 1.224646799147353207E-16 ) ) ;
#242 = DIRECTION ( 'NONE',  ( 4.668921077302404411E-31, 1.000000000000000000, 1.314184451497585203E-16 ) ) ;
#243 = AXIS2_PLACEMENT_3D ( 'NONE', #179, #234, #4 ) ;
#244 = CIRCLE ( 'NONE', #181, 3.299999999999998046 ) ;
#245 = EDGE_CURVE ( 'NONE', #209, #199, #244, .T. ) ;
#246 = EDGE_LOOP ( 'NONE', ( #337, #184, #280 ) ) ;
#247 = DIRECTION ( 'NONE',  ( -3.491481338843133355E-15, 1.224646799147353207E-16, -1.000000000000000000 ) ) ;
#248 = DIRECTION ( 'NONE',  ( 4.275831445896958607E-31, 1.000000000000000000, 1.224646799147353207E-16 ) ) ;
#249 = CARTESIAN_POINT ( 'NONE',  ( 0.0000000000000000000, 0.0000000000000000000, 0.0000000000000000000 ) ) ;
#250 = DATE_TIME_ROLE ( 'creation_date' ) ;
#251 = DATE_AND_TIME ( #214, #154 ) ;
#252 = FACE_OUTER_BOUND ( 'NONE', #78, .T. ) ;
#253 = COORDINATED_UNIVERSAL_TIME_OFFSET ( 1, 0, .AHEAD. ) ;
#254 = VECTOR ( 'NONE', #67, 1000.000000000000000 ) ;
#255 = CARTESIAN_POINT ( 'NONE',  ( 2.444036937190193601E-13, 1.949687717460400658E-32, 70.00000000000000000 ) ) ;
#256 = ADVANCED_FACE ( 'NONE', ( #277 ), #45, .F. ) ;
#257 = ORIENTED_EDGE ( 'NONE', *, *, #125, .T. ) ;
#258 = APPROVAL_STATUS ( 'not_yet_approved' ) ;
#259 = ORIENTED_EDGE ( 'NONE', *, *, #157, .T. ) ;
#260 = DIRECTION ( 'NONE',  ( -3.491481338843133355E-15, 1.224646799147353207E-16, -1.000000000000000000 ) ) ;
#261 = CIRCLE ( 'NONE', #268, 3.299999999999992273 ) ;
#262 =( LENGTH_UNIT ( ) NAMED_UNIT ( * ) SI_UNIT ( .MILLI., .METRE. ) );
#263 = CIRCLE ( 'NONE', #163, 3.299999999999992273 ) ;
#264 = EDGE_CURVE ( 'NONE', #161, #216, #263, .T. ) ;
#265 = ORIENTED_EDGE ( 'NONE', *, *, #220, .T. ) ;
#266 = EDGE_LOOP ( 'NONE', ( #28, #265, #53, #307 ) ) ;
#267 = ADVANCED_FACE ( 'NONE', ( #310 ), #164, .F. ) ;
#268 = AXIS2_PLACEMENT_3D ( 'NONE', #74, #69, #174 ) ;
#269 = CARTESIAN_POINT ( 'NONE',  ( 2.444036937190193601E-13, 2.599999999999989431, 70.00000000000000000 ) ) ;
#270 = ORIENTED_EDGE ( 'NONE', *, *, #81, .T. ) ;
#271 = DIRECTION ( 'NONE',  ( -3.491481338843133355E-15, 1.224646799147353207E-16, -1.000000000000000000 ) ) ;
#272 = EDGE_CURVE ( 'NONE', #14, #85, #204, .T. ) ;
#273 = AXIS2_PLACEMENT_3D ( 'NONE', #90, #112, #32 ) ;
#274 = CARTESIAN_POINT ( 'NONE',  ( 2.444036937190193601E-13, -8.572527594031472993E-15, 70.00000000000000000 ) ) ;
#275 = MANIFOLD_SOLID_BREP ( 'Corps-Déplacer/Copier1[2]', #297 ) ;
#276 = ORIENTED_EDGE ( 'NONE', *, *, #29, .T. ) ;
#277 = FACE_OUTER_BOUND ( 'NONE', #48, .T. ) ;
#278 = CC_DESIGN_DATE_AND_TIME_ASSIGNMENT ( #155, #19, ( #298 ) ) ;
#279 = LINE ( 'NONE', #16, #165 ) ;
#280 = ORIENTED_EDGE ( 'NONE', *, *, #109, .T. ) ;
#281 = APPLICATION_CONTEXT ( 'configuration controlled 3d designs of mechanical parts and assemblies' ) ;
#282 = PERSON_AND_ORGANIZATION ( #110, #132 ) ;
#283 = EDGE_LOOP ( 'NONE', ( #107, #18, #6, #139 ) ) ;
#284 = ORIENTED_EDGE ( 'NONE', *, *, #133, .T. ) ;
#285 = VECTOR ( 'NONE', #218, 1000.000000000000114 ) ;
#286 = FACE_OUTER_BOUND ( 'NONE', #115, .T. ) ;
#287 = ORIENTED_EDGE ( 'NONE', *, *, #157, .F. ) ;
#288 = CALENDAR_DATE ( 2021, 3, 9 ) ;
#289 = DIRECTION ( 'NONE',  ( -2.382254525458727330E-15, -0.7071067811865443531, -0.7071067811865506814 ) ) ;
#290 = APPLICATION_PROTOCOL_DEFINITION ( 'international standard', 'config_control_design', 1994, #190 ) ;
#291 = APPROVAL_PERSON_ORGANIZATION ( #37, #224, #119 ) ;
#292 = EDGE_CURVE ( 'NONE', #209, #161, #64, .T. ) ;
#293 = APPROVAL_PERSON_ORGANIZATION ( #95, #153, #88 ) ;
#294 = EDGE_LOOP ( 'NONE', ( #65, #284 ) ) ;
#295 = DIRECTION ( 'NONE',  ( 3.491481338843133355E-15, -1.224646799147353207E-16, 1.000000000000000000 ) ) ;
#296 = CALENDAR_DATE ( 2021, 3, 9 ) ;
#297 = CLOSED_SHELL ( 'NONE', ( #335, #86, #100, #328, #44 ) ) ;
#298 = SECURITY_CLASSIFICATION ( '', '', #66 ) ;
#299 = DIRECTION ( 'NONE',  ( -3.491481338843133355E-15, 1.224646799147353207E-16, -1.000000000000000000 ) ) ;
#300 = CARTESIAN_POINT ( 'NONE',  ( 6.923049007315570764E-15, -3.299999999999990496, 1.982840042790964041 ) ) ;
#301 = CC_DESIGN_PERSON_AND_ORGANIZATION_ASSIGNMENT ( #114, #93, ( #73 ) ) ;
#302 = COORDINATED_UNIVERSAL_TIME_OFFSET ( 1, 0, .AHEAD. ) ;
#303 = EDGE_CURVE ( 'NONE', #177, #162, #233, .T. ) ;
#304 = CIRCLE ( 'NONE', #191, 3.299999999999990052 ) ;
#305 = APPLICATION_PROTOCOL_DEFINITION ( 'international standard', 'config_control_design', 1994, #281 ) ;
#306 = EDGE_CURVE ( 'NONE', #199, #216, #146, .T. ) ;
#307 = ORIENTED_EDGE ( 'NONE', *, *, #109, .F. ) ;
#308 = CARTESIAN_POINT ( 'NONE',  ( 0.0000000000000000000, 0.0000000000000000000, 0.0000000000000000000 ) ) ;
#309 = CARTESIAN_POINT ( 'NONE',  ( 6.923049007315572342E-15, -2.428278711625155546E-16, 1.982840042790964485 ) ) ;
#310 = FACE_OUTER_BOUND ( 'NONE', #294, .T. ) ;
#311 = ORIENTED_EDGE ( 'NONE', *, *, #133, .F. ) ;
#312 = VERTEX_POINT ( 'NONE', #212 ) ;
#313 = AXIS2_PLACEMENT_3D ( 'NONE', #217, #330, #248 ) ;
#314 = CC_DESIGN_SECURITY_CLASSIFICATION ( #298, ( #227 ) ) ;
#315 = LINE ( 'NONE', #239, #8 ) ;
#316 = PRODUCT_DEFINITION ( 'UNKNOWN', '', #227, #175 ) ;
#317 = CYLINDRICAL_SURFACE ( 'NONE', #97, 3.299999999999991385 ) ;
#318 = SHAPE_DEFINITION_REPRESENTATION ( #17, #23 ) ;
#319 = CARTESIAN_POINT ( 'NONE',  ( 8.030407079339205455E-14, 3.299999999999989608, 23.00000000000000000 ) ) ;
#320 = DIRECTION ( 'NONE',  ( 3.491481338843133355E-15, -1.224646799147353207E-16, 1.000000000000000000 ) ) ;
#321 = APPROVAL_DATE_TIME ( #251, #224 ) ;
#322 = FACE_OUTER_BOUND ( 'NONE', #283, .T. ) ;
#323 = ORIENTED_EDGE ( 'NONE', *, *, #292, .T. ) ;
#324 = CONICAL_SURFACE ( 'NONE', #82, 2.599999999999998312, 0.7853981633974439491 ) ;
#325 = DIRECTION ( 'NONE',  ( -3.491481338843133355E-15, 1.224646799147353207E-16, -1.000000000000000000 ) ) ;
#326 = DIRECTION ( 'NONE',  ( -3.491481338843133355E-15, 1.224646799147353207E-16, -1.000000000000000000 ) ) ;
#327 = ORIENTED_EDGE ( 'NONE', *, *, #272, .F. ) ;
#328 = ADVANCED_FACE ( 'NONE', ( #142 ), #317, .T. ) ;
#329 = VERTEX_POINT ( 'NONE', #42 ) ;
#330 = DIRECTION ( 'NONE',  ( -3.491481338843133355E-15, 1.224646799147353207E-16, -1.000000000000000000 ) ) ;
#331 = APPROVAL_ROLE ( '' ) ;
#332 = EDGE_LOOP ( 'NONE', ( #270, #167, #287, #79 ) ) ;
#333 = AXIS2_PLACEMENT_3D ( 'NONE', #113, #299, #228 ) ;
#334 = CONICAL_SURFACE ( 'NONE', #108, 3.299999999999990052, 1.029744258676649871 ) ;
#335 = ADVANCED_FACE ( 'NONE', ( #150 ), #238, .T. ) ;
#336 = DIRECTION ( 'NONE',  ( -3.491481338843133355E-15, 1.224646799147353207E-16, -1.000000000000000000 ) ) ;
#337 = ORIENTED_EDGE ( 'NONE', *, *, #188, .F. ) ;
ENDSEC;
END-ISO-10303-21;
