ISO-10303-21;
HEADER;
FILE_DESCRIPTION (( 'STEP AP203' ),
    '1' );
FILE_NAME ('41514.step',
    '2021-09-03T07:22:13',
    ( '' ),
    ( '' ),
    'SwSTEP 2.0',
    'SolidWorks 2019',
    '' );
FILE_SCHEMA (( 'CONFIG_CONTROL_DESIGN' ));
ENDSEC;

DATA;
#1 = ORIENTED_EDGE ( 'NONE', *, *, #146, .F. ) ;
#2 = EDGE_LOOP ( 'NONE', ( #170, #180, #286, #250 ) ) ;
#3 = AXIS2_PLACEMENT_3D ( 'NONE', #195, #141, #214 ) ;
#4 = APPROVAL_DATE_TIME ( #93, #307 ) ;
#5 = VERTEX_POINT ( 'NONE', #42 ) ;
#6 = AXIS2_PLACEMENT_3D ( 'NONE', #235, #242, #189 ) ;
#7 = PLANE ( 'NONE',  #278 ) ;
#8 = LOCAL_TIME ( 9, 22, 13.00000000000000000, #69 ) ;
#9 =( LENGTH_UNIT ( ) NAMED_UNIT ( * ) SI_UNIT ( .MILLI., .METRE. ) );
#10 = CC_DESIGN_PERSON_AND_ORGANIZATION_ASSIGNMENT ( #45, #173, ( #117 ) ) ;
#11 = DIRECTION ( 'NONE',  ( -3.491481338843133355E-15, 1.224646799147353207E-16, -1.000000000000000000 ) ) ;
#12 = ADVANCED_FACE ( 'NONE', ( #244 ), #219, .T. ) ;
#13 = FACE_OUTER_BOUND ( 'NONE', #31, .T. ) ;
#14 = CIRCLE ( 'NONE', #252, 1.274999999999995470 ) ;
#15 = SECURITY_CLASSIFICATION ( '', '', #157 ) ;
#16 = VERTEX_POINT ( 'NONE', #140 ) ;
#17 = ADVANCED_FACE ( 'NONE', ( #329 ), #211, .T. ) ;
#18 = ORIENTED_EDGE ( 'NONE', *, *, #136, .T. ) ;
#19 = DIRECTION ( 'NONE',  ( -3.491481338843133355E-15, 1.224646799147353207E-16, -1.000000000000000000 ) ) ;
#20 = APPROVAL_DATE_TIME ( #119, #275 ) ;
#21 = VERTEX_POINT ( 'NONE', #295 ) ;
#22 = ORIENTED_EDGE ( 'NONE', *, *, #81, .T. ) ;
#23 = PERSON ( 'UNSPECIFIED', 'UNSPECIFIED', 'UNSPECIFIED', ('UNSPECIFIED'), ('UNSPECIFIED'), ('UNSPECIFIED') ) ;
#24 = COORDINATED_UNIVERSAL_TIME_OFFSET ( 1, 0, .AHEAD. ) ;
#25 = PRODUCT_DEFINITION ( 'UNKNOWN', '', #117, #62 ) ;
#26 = DIRECTION ( 'NONE',  ( 3.021066579430971991E-31, 1.000000000000000000, 8.503546450866740258E-17 ) ) ;
#27 = CARTESIAN_POINT ( 'NONE',  ( 2.674814389190103498E-15, -9.381985931278996281E-17, 0.7660972892601441986 ) ) ;
#28 = CC_DESIGN_APPROVAL ( #307, ( #15 ) ) ;
#29 = FACE_OUTER_BOUND ( 'NONE', #2, .T. ) ;
#30 = CARTESIAN_POINT ( 'NONE',  ( 3.840629472727446691E-14, -1.347111479062088405E-15, 11.00000000000000000 ) ) ;
#31 = EDGE_LOOP ( 'NONE', ( #22, #322 ) ) ;
#32 = LINE ( 'NONE', #109, #116 ) ;
#33 = AXIS2_PLACEMENT_3D ( 'NONE', #80, #181, #102 ) ;
#34 = FACE_OUTER_BOUND ( 'NONE', #193, .T. ) ;
#35 = DIRECTION ( 'NONE',  ( -3.021066579430971991E-31, -1.000000000000000000, -8.503546450866740258E-17 ) ) ;
#36 = APPLICATION_PROTOCOL_DEFINITION ( 'international standard', 'config_control_design', 1994, #206 ) ;
#37 = EDGE_CURVE ( 'NONE', #21, #52, #64, .T. ) ;
#38 = DIRECTION ( 'NONE',  ( 3.491481338843133355E-15, -1.224646799147353207E-16, 1.000000000000000000 ) ) ;
#39 = CARTESIAN_POINT ( 'NONE',  ( 3.840629472727446691E-14, -1.347111479062088405E-15, 11.00000000000000000 ) ) ;
#40 = AXIS2_PLACEMENT_3D ( 'NONE', #309, #19, #306 ) ;
#41 = EDGE_LOOP ( 'NONE', ( #168, #1 ) ) ;
#42 = CARTESIAN_POINT ( 'NONE',  ( 1.490862531686017753E-13, 1.274999999999994138, 42.69999999999999574 ) ) ;
#43 = EDGE_CURVE ( 'NONE', #52, #94, #86, .T. ) ;
#44 = DIRECTION ( 'NONE',  ( -3.491481338843133355E-15, 1.224646799147353207E-16, -1.000000000000000000 ) ) ;
#45 = PERSON_AND_ORGANIZATION ( #23, #137 ) ;
#46 = DIRECTION ( 'NONE',  ( 0.0000000000000000000, 1.000000000000000000, 0.0000000000000000000 ) ) ;
#47 = VERTEX_POINT ( 'NONE', #310 ) ;
#48 = ORIENTED_EDGE ( 'NONE', *, *, #328, .T. ) ;
#49 = APPLICATION_CONTEXT ( 'configuration controlled 3d designs of mechanical parts and assemblies' ) ;
#50 = ORIENTED_EDGE ( 'NONE', *, *, #132, .T. ) ;
#51 = CIRCLE ( 'NONE', #130, 1.274999999999999467 ) ;
#52 = VERTEX_POINT ( 'NONE', #251 ) ;
#53 = CARTESIAN_POINT ( 'NONE',  ( 0.0000000000000000000, 0.0000000000000000000, 0.0000000000000000000 ) ) ;
#54 = AXIS2_PLACEMENT_3D ( 'NONE', #255, #316, #199 ) ;
#55 = CARTESIAN_POINT ( 'NONE',  ( 2.069669702512355473E-14, -1.274999999999997025, 11.00000000000000000 ) ) ;
#56 = DIRECTION ( 'NONE',  ( -3.491481338843133355E-15, 1.224646799147353207E-16, -1.000000000000000000 ) ) ;
#57 = DIRECTION ( 'NONE',  ( 0.0000000000000000000, 1.000000000000000000, 0.0000000000000000000 ) ) ;
#58 = AXIS2_PLACEMENT_3D ( 'NONE', #53, #232, #319 ) ;
#59 = DIRECTION ( 'NONE',  ( -3.491481338843133355E-15, 1.224646799147353207E-16, -1.000000000000000000 ) ) ;
#60 = PERSON_AND_ORGANIZATION ( #23, #137 ) ;
#61 = CARTESIAN_POINT ( 'NONE',  ( 1.490862531686017753E-13, -5.229241832359197610E-15, 42.69999999999999574 ) ) ;
#62 = DESIGN_CONTEXT ( 'detailed design', #206, 'design' ) ;
#63 = CARTESIAN_POINT ( 'NONE',  ( 3.840629472727446691E-14, -1.347111479062088405E-15, 11.00000000000000000 ) ) ;
#64 = LINE ( 'NONE', #167, #256 ) ;
#65 = PERSON_AND_ORGANIZATION_ROLE ( 'design_owner' ) ;
#66 = PRODUCT_RELATED_PRODUCT_CATEGORY ( 'detail', '', ( #131 ) ) ;
#67 = DIRECTION ( 'NONE',  ( -3.491481338843133355E-15, 1.224646799147353207E-16, -1.000000000000000000 ) ) ;
#68 = VERTEX_POINT ( 'NONE', #115 ) ;
#69 = COORDINATED_UNIVERSAL_TIME_OFFSET ( 1, 0, .AHEAD. ) ;
#70 = CIRCLE ( 'NONE', #263, 0.9749999999999996447 ) ;
#71 = ADVANCED_FACE ( 'NONE', ( #230 ), #179, .T. ) ;
#72 = CALENDAR_DATE ( 2021, 3, 9 ) ;
#73 = EDGE_LOOP ( 'NONE', ( #287, #75, #48, #284 ) ) ;
#74 = DIRECTION ( 'NONE',  ( -2.468850131082272443E-15, 0.7071067811865454633, -0.7071067811865495711 ) ) ;
#75 = ORIENTED_EDGE ( 'NONE', *, *, #178, .T. ) ;
#76 = EDGE_CURVE ( 'NONE', #16, #68, #297, .T. ) ;
#77 = DIRECTION ( 'NONE',  ( 4.275831445896958607E-31, 1.000000000000000000, 1.224646799147353207E-16 ) ) ;
#78 = CIRCLE ( 'NONE', #267, 1.274999999999999467 ) ;
#79 = CIRCLE ( 'NONE', #40, 0.9749999999999996447 ) ;
#80 = CARTESIAN_POINT ( 'NONE',  ( 1.501336975702547217E-13, -5.265981236333618470E-15, 43.00000000000000000 ) ) ;
#81 = EDGE_CURVE ( 'NONE', #94, #52, #14, .T. ) ;
#82 = DIRECTION ( 'NONE',  ( -3.491481338843133355E-15, 1.224646799147353207E-16, -1.000000000000000000 ) ) ;
#83 = EDGE_CURVE ( 'NONE', #47, #21, #205, .T. ) ;
#84 = CONICAL_SURFACE ( 'NONE', #257, 1.274999999999994138, 1.029744258676649649 ) ;
#85 = CALENDAR_DATE ( 2021, 3, 9 ) ;
#86 = CIRCLE ( 'NONE', #104, 1.274999999999995470 ) ;
#87 = ORIENTED_EDGE ( 'NONE', *, *, #146, .T. ) ;
#88 = MECHANICAL_CONTEXT ( 'NONE', #49, 'mechanical' ) ;
#89 = CC_DESIGN_DATE_AND_TIME_ASSIGNMENT ( #198, #122, ( #15 ) ) ;
#90 = ORIENTED_EDGE ( 'NONE', *, *, #100, .F. ) ;
#91 = APPROVAL_PERSON_ORGANIZATION ( #153, #275, #97 ) ;
#92 = PLANE ( 'NONE',  #204 ) ;
#93 = DATE_AND_TIME ( #72, #315 ) ;
#94 = VERTEX_POINT ( 'NONE', #133 ) ;
#95 = ORIENTED_EDGE ( 'NONE', *, *, #37, .F. ) ;
#96 = PERSON_AND_ORGANIZATION ( #23, #137 ) ;
#97 = APPROVAL_ROLE ( '' ) ;
#98 = CARTESIAN_POINT ( 'NONE',  ( 3.840629472727446691E-14, 1.274999999999994138, 11.00000000000000000 ) ) ;
#99 = AXIS2_PLACEMENT_3D ( 'NONE', #187, #56, #268 ) ;
#100 = EDGE_CURVE ( 'NONE', #68, #16, #215, .T. ) ;
#101 = CC_DESIGN_APPROVAL ( #259, ( #25 ) ) ;
#102 = DIRECTION ( 'NONE',  ( 0.0000000000000000000, 1.000000000000000000, 0.0000000000000000000 ) ) ;
#103 = CYLINDRICAL_SURFACE ( 'NONE', #6, 1.274999999999994804 ) ;
#104 = AXIS2_PLACEMENT_3D ( 'NONE', #39, #225, #201 ) ;
#105 = CARTESIAN_POINT ( 'NONE',  ( 1.501336975702547217E-13, 7.311328940476475099E-33, 43.00000000000000000 ) ) ;
#106 = APPROVAL_PERSON_ORGANIZATION ( #60, #259, #221 ) ;
#107 = FACE_OUTER_BOUND ( 'NONE', #210, .T. ) ;
#108 = CC_DESIGN_PERSON_AND_ORGANIZATION_ASSIGNMENT ( #96, #254, ( #15 ) ) ;
#109 = CARTESIAN_POINT ( 'NONE',  ( 2.830956856081390969E-15, 1.274999999999994138, 0.7660972892601443096 ) ) ;
#110 = DIRECTION ( 'NONE',  ( -4.275831445896958607E-31, -1.000000000000000000, -1.224646799147353207E-16 ) ) ;
#111 = ADVANCED_FACE ( 'NONE', ( #184 ), #7, .F. ) ;
#112 = DIRECTION ( 'NONE',  ( 3.491481338843133355E-15, -1.224646799147353207E-16, 1.000000000000000000 ) ) ;
#113 = DIRECTION ( 'NONE',  ( 4.275831445896958607E-31, 1.000000000000000000, 1.224646799147353207E-16 ) ) ;
#114 = DATE_AND_TIME ( #85, #298 ) ;
#115 = CARTESIAN_POINT ( 'NONE',  ( 2.830956856081390969E-15, 1.274999999999994138, 0.7660972892601443096 ) ) ;
#116 = VECTOR ( 'NONE', #164, 999.9999999999998863 ) ;
#117 = PRODUCT_DEFINITION_FORMATION_WITH_SPECIFIED_SOURCE ( 'ANY', '', #131, .NOT_KNOWN. ) ;
#118 = CALENDAR_DATE ( 2021, 3, 9 ) ;
#119 = DATE_AND_TIME ( #334, #324 ) ;
#120 = VERTEX_POINT ( 'NONE', #240 ) ;
#121 = AXIS2_PLACEMENT_3D ( 'NONE', #144, #59, #113 ) ;
#122 = DATE_TIME_ROLE ( 'classification_date' ) ;
#123 = CARTESIAN_POINT ( 'NONE',  ( 1.561424668912863870E-16, -1.274999999999994804, -1.561424668912874470E-16 ) ) ;
#124 = ORIENTED_EDGE ( 'NONE', *, *, #37, .T. ) ;
#125 = DATE_AND_TIME ( #175, #332 ) ;
#126 = LINE ( 'NONE', #253, #279 ) ;
#127 = CARTESIAN_POINT ( 'NONE',  ( 2.674814389190103498E-15, -9.381985931278996281E-17, 0.7660972892601441986 ) ) ;
#128 = DIRECTION ( 'NONE',  ( 3.491481338843133355E-15, -1.224646799147353207E-16, 1.000000000000000000 ) ) ;
#129 = CONICAL_SURFACE ( 'NONE', #323, 1.274999999999994138, 1.029744258676649649 ) ;
#130 = AXIS2_PLACEMENT_3D ( 'NONE', #176, #283, #46 ) ;
#131 = PRODUCT ( '41514', '41514', '', ( #88 ) ) ;
#132 = EDGE_CURVE ( 'NONE', #21, #5, #78, .T. ) ;
#133 = CARTESIAN_POINT ( 'NONE',  ( 3.840629472727446691E-14, 1.274999999999994138, 11.00000000000000000 ) ) ;
#134 =( NAMED_UNIT ( * ) SI_UNIT ( $, .STERADIAN. ) SOLID_ANGLE_UNIT ( ) );
#135 = DIRECTION ( 'NONE',  ( -3.021066579430971991E-31, -1.000000000000000000, -8.503546450866740258E-17 ) ) ;
#136 = EDGE_CURVE ( 'NONE', #120, #68, #32, .T. ) ;
#137 = ORGANIZATION ( 'UNSPECIFIED', 'UNSPECIFIED', '' ) ;
#138 = CONICAL_SURFACE ( 'NONE', #99, 0.9749999999999996447, 0.7853981633974452814 ) ;
#139 = CYLINDRICAL_SURFACE ( 'NONE', #58, 1.274999999999994804 ) ;
#140 = CARTESIAN_POINT ( 'NONE',  ( 2.674814389190103103E-15, -1.274999999999994138, 0.7660972892601440876 ) ) ;
#141 = DIRECTION ( 'NONE',  ( 0.0000000000000000000, 0.0000000000000000000, 1.000000000000000000 ) ) ;
#142 = ADVANCED_FACE ( 'NONE', ( #246 ), #129, .T. ) ;
#143 = CIRCLE ( 'NONE', #54, 1.274999999999995470 ) ;
#144 = CARTESIAN_POINT ( 'NONE',  ( 0.0000000000000000000, 0.0000000000000000000, 0.0000000000000000000 ) ) ;
#145 = ADVANCED_FACE ( 'NONE', ( #212 ), #166, .T. ) ;
#146 = EDGE_CURVE ( 'NONE', #47, #200, #70, .T. ) ;
#147 = AXIS2_PLACEMENT_3D ( 'NONE', #127, #82, #26 ) ;
#148 = ORIENTED_EDGE ( 'NONE', *, *, #318, .F. ) ;
#149 = COORDINATED_UNIVERSAL_TIME_OFFSET ( 1, 0, .AHEAD. ) ;
#150 = LINE ( 'NONE', #258, #304 ) ;
#151 = ORIENTED_EDGE ( 'NONE', *, *, #326, .T. ) ;
#152 = APPROVAL_STATUS ( 'not_yet_approved' ) ;
#153 = PERSON_AND_ORGANIZATION ( #23, #137 ) ;
#154 = DIRECTION ( 'NONE',  ( -3.491481338843133355E-15, 1.224646799147353207E-16, -1.000000000000000000 ) ) ;
#155 = VECTOR ( 'NONE', #288, 1000.000000000000000 ) ;
#156 = CC_DESIGN_APPROVAL ( #275, ( #117 ) ) ;
#157 = SECURITY_CLASSIFICATION_LEVEL ( 'unclassified' ) ;
#158 = CARTESIAN_POINT ( 'NONE',  ( 5.451685093518611757E-31, 1.274999999999997469, 1.561424668912872251E-16 ) ) ;
#159 = DIRECTION ( 'NONE',  ( 3.491481338843133355E-15, -1.224646799147353207E-16, 1.000000000000000000 ) ) ;
#160 = LINE ( 'NONE', #222, #172 ) ;
#161 = ORIENTED_EDGE ( 'NONE', *, *, #178, .F. ) ;
#162 = DIRECTION ( 'NONE',  ( -3.491481338843133355E-15, 1.224646799147353207E-16, -1.000000000000000000 ) ) ;
#163 =( GEOMETRIC_REPRESENTATION_CONTEXT ( 3 ) GLOBAL_UNCERTAINTY_ASSIGNED_CONTEXT ( ( #294 ) ) GLOBAL_UNIT_ASSIGNED_CONTEXT ( ( #9, #231, #134 ) ) REPRESENTATION_CONTEXT ( 'NONE', 'WORKASPACE' ) );
#164 = DIRECTION ( 'NONE',  ( 1.903218546456022717E-15, 0.8571673007021097801, 0.5150380749100585964 ) ) ;
#165 = DIRECTION ( 'NONE',  ( 4.275831445896958607E-31, 1.000000000000000000, 1.224646799147353207E-16 ) ) ;
#166 = PLANE ( 'NONE',  #171 ) ;
#167 = CARTESIAN_POINT ( 'NONE',  ( 1.561424668912867075E-16, -1.274999999999997469, -1.561424668912877675E-16 ) ) ;
#168 = ORIENTED_EDGE ( 'NONE', *, *, #269, .F. ) ;
#169 = CC_DESIGN_PERSON_AND_ORGANIZATION_ASSIGNMENT ( #280, #337, ( #117 ) ) ;
#170 = ORIENTED_EDGE ( 'NONE', *, *, #269, .T. ) ;
#171 = AXIS2_PLACEMENT_3D ( 'NONE', #217, #38, #110 ) ;
#172 = VECTOR ( 'NONE', #299, 1000.000000000000000 ) ;
#173 = PERSON_AND_ORGANIZATION_ROLE ( 'creator' ) ;
#174 = ORIENTED_EDGE ( 'NONE', *, *, #132, .F. ) ;
#175 = CALENDAR_DATE ( 2021, 3, 9 ) ;
#176 = CARTESIAN_POINT ( 'NONE',  ( 1.490862531686017753E-13, -5.229241832359197610E-15, 42.69999999999999574 ) ) ;
#177 = ORIENTED_EDGE ( 'NONE', *, *, #81, .F. ) ;
#178 = EDGE_CURVE ( 'NONE', #241, #266, #314, .T. ) ;
#179 = CONICAL_SURFACE ( 'NONE', #33, 0.9749999999999996447, 0.7853981633974452814 ) ;
#180 = ORIENTED_EDGE ( 'NONE', *, *, #83, .T. ) ;
#181 = DIRECTION ( 'NONE',  ( -3.491481338843133355E-15, 1.224646799147353207E-16, -1.000000000000000000 ) ) ;
#182 = ADVANCED_FACE ( 'NONE', ( #13 ), #92, .F. ) ;
#183 = DIRECTION ( 'NONE',  ( 0.0000000000000000000, 1.000000000000000000, 0.0000000000000000000 ) ) ;
#184 = FACE_OUTER_BOUND ( 'NONE', #41, .T. ) ;
#185 = ADVANCED_BREP_SHAPE_REPRESENTATION ( '41514', ( #273, #274, #3 ), #163 ) ;
#186 = PRODUCT_DEFINITION_SHAPE ( 'NONE', 'NONE',  #25 ) ;
#187 = CARTESIAN_POINT ( 'NONE',  ( 1.501336975702547217E-13, -5.265981236333618470E-15, 43.00000000000000000 ) ) ;
#188 = APPROVAL_DATE_TIME ( #114, #259 ) ;
#189 = DIRECTION ( 'NONE',  ( 4.275831445896958607E-31, 1.000000000000000000, 1.224646799147353207E-16 ) ) ;
#190 = DIRECTION ( 'NONE',  ( 0.0000000000000000000, 1.000000000000000000, 0.0000000000000000000 ) ) ;
#191 = PERSON_AND_ORGANIZATION ( #23, #137 ) ;
#192 = EDGE_LOOP ( 'NONE', ( #151, #124, #177, #148 ) ) ;
#193 = EDGE_LOOP ( 'NONE', ( #321, #281, #90, #313 ) ) ;
#194 = CARTESIAN_POINT ( 'NONE',  ( 0.0000000000000000000, 0.0000000000000000000, 0.0000000000000000000 ) ) ;
#195 = CARTESIAN_POINT ( 'NONE',  ( 0.0000000000000000000, 0.0000000000000000000, 0.0000000000000000000 ) ) ;
#196 = DIRECTION ( 'NONE',  ( -4.275831445896958607E-31, -1.000000000000000000, -1.224646799147353207E-16 ) ) ;
#197 = PERSON_AND_ORGANIZATION ( #23, #137 ) ;
#198 = DATE_AND_TIME ( #118, #8 ) ;
#199 = DIRECTION ( 'NONE',  ( 0.0000000000000000000, 1.000000000000000000, 0.0000000000000000000 ) ) ;
#200 = VERTEX_POINT ( 'NONE', #300 ) ;
#201 = DIRECTION ( 'NONE',  ( 0.0000000000000000000, 1.000000000000000000, 0.0000000000000000000 ) ) ;
#202 = EDGE_LOOP ( 'NONE', ( #335, #249, #271 ) ) ;
#203 = ADVANCED_FACE ( 'NONE', ( #270 ), #103, .T. ) ;
#204 = AXIS2_PLACEMENT_3D ( 'NONE', #311, #159, #196 ) ;
#205 = LINE ( 'NONE', #317, #155 ) ;
#206 = APPLICATION_CONTEXT ( 'configuration controlled 3d designs of mechanical parts and assemblies' ) ;
#207 = CARTESIAN_POINT ( 'NONE',  ( 2.674814389190103498E-15, -9.381985931278996281E-17, 0.7660972892601441986 ) ) ;
#208 = CC_DESIGN_SECURITY_CLASSIFICATION ( #15, ( #117 ) ) ;
#209 = DIRECTION ( 'NONE',  ( -3.491481338843133355E-15, 1.224646799147353207E-16, -1.000000000000000000 ) ) ;
#210 = EDGE_LOOP ( 'NONE', ( #308, #18, #239 ) ) ;
#211 = CYLINDRICAL_SURFACE ( 'NONE', #237, 1.274999999999997469 ) ;
#212 = FACE_OUTER_BOUND ( 'NONE', #277, .T. ) ;
#213 = ADVANCED_FACE ( 'NONE', ( #107 ), #84, .T. ) ;
#214 = DIRECTION ( 'NONE',  ( 1.000000000000000000, 0.0000000000000000000, 0.0000000000000000000 ) ) ;
#215 = CIRCLE ( 'NONE', #220, 1.274999999999994138 ) ;
#216 = AXIS2_PLACEMENT_3D ( 'NONE', #63, #67, #183 ) ;
#217 = CARTESIAN_POINT ( 'NONE',  ( 3.840629472727446691E-14, 9.560968614469290249E-33, 11.00000000000000000 ) ) ;
#218 = ADVANCED_FACE ( 'NONE', ( #29 ), #138, .T. ) ;
#219 = CYLINDRICAL_SURFACE ( 'NONE', #121, 1.274999999999997469 ) ;
#220 = AXIS2_PLACEMENT_3D ( 'NONE', #27, #236, #320 ) ;
#221 = APPROVAL_ROLE ( '' ) ;
#222 = CARTESIAN_POINT ( 'NONE',  ( 2.674814389190103103E-15, -1.274999999999994138, 0.7660972892601440876 ) ) ;
#223 = COORDINATED_UNIVERSAL_TIME_OFFSET ( 1, 0, .AHEAD. ) ;
#224 = ORIENTED_EDGE ( 'NONE', *, *, #43, .F. ) ;
#225 = DIRECTION ( 'NONE',  ( -3.491481338843133355E-15, 1.224646799147353207E-16, -1.000000000000000000 ) ) ;
#226 = CLOSED_SHELL ( 'NONE', ( #218, #12, #182, #17, #71, #111 ) ) ;
#227 = ORIENTED_EDGE ( 'NONE', *, *, #83, .F. ) ;
#228 = LINE ( 'NONE', #123, #290 ) ;
#229 = CC_DESIGN_PERSON_AND_ORGANIZATION_ASSIGNMENT ( #191, #65, ( #131 ) ) ;
#230 = FACE_OUTER_BOUND ( 'NONE', #331, .T. ) ;
#231 =( NAMED_UNIT ( * ) PLANE_ANGLE_UNIT ( ) SI_UNIT ( $, .RADIAN. ) );
#232 = DIRECTION ( 'NONE',  ( -3.491481338843133355E-15, 1.224646799147353207E-16, -1.000000000000000000 ) ) ;
#233 = DIRECTION ( 'NONE',  ( -3.491481338843133355E-15, 1.224646799147353207E-16, -1.000000000000000000 ) ) ;
#234 = ORIENTED_EDGE ( 'NONE', *, *, #303, .T. ) ;
#235 = CARTESIAN_POINT ( 'NONE',  ( 0.0000000000000000000, 0.0000000000000000000, 0.0000000000000000000 ) ) ;
#236 = DIRECTION ( 'NONE',  ( -3.491481338843133355E-15, 1.224646799147353207E-16, -1.000000000000000000 ) ) ;
#237 = AXIS2_PLACEMENT_3D ( 'NONE', #194, #11, #165 ) ;
#238 = ADVANCED_FACE ( 'NONE', ( #34 ), #139, .T. ) ;
#239 = ORIENTED_EDGE ( 'NONE', *, *, #100, .T. ) ;
#240 = CARTESIAN_POINT ( 'NONE',  ( 0.0000000000000000000, 0.0000000000000000000, 0.0000000000000000000 ) ) ;
#241 = VERTEX_POINT ( 'NONE', #55 ) ;
#242 = DIRECTION ( 'NONE',  ( -3.491481338843133355E-15, 1.224646799147353207E-16, -1.000000000000000000 ) ) ;
#243 = COORDINATED_UNIVERSAL_TIME_OFFSET ( 1, 0, .AHEAD. ) ;
#244 = FACE_OUTER_BOUND ( 'NONE', #192, .T. ) ;
#245 = VECTOR ( 'NONE', #44, 1000.000000000000000 ) ;
#246 = FACE_OUTER_BOUND ( 'NONE', #202, .T. ) ;
#247 = PERSON_AND_ORGANIZATION_ROLE ( 'creator' ) ;
#248 = EDGE_CURVE ( 'NONE', #120, #16, #160, .T. ) ;
#249 = ORIENTED_EDGE ( 'NONE', *, *, #248, .T. ) ;
#250 = ORIENTED_EDGE ( 'NONE', *, *, #303, .F. ) ;
#251 = CARTESIAN_POINT ( 'NONE',  ( 9.390241641482936363E-14, -1.274999999999996803, 11.00000000000000000 ) ) ;
#252 = AXIS2_PLACEMENT_3D ( 'NONE', #30, #233, #265 ) ;
#253 = CARTESIAN_POINT ( 'NONE',  ( 1.501336975702547217E-13, 0.9749999999999943157, 43.00000000000000000 ) ) ;
#254 = PERSON_AND_ORGANIZATION_ROLE ( 'classification_officer' ) ;
#255 = CARTESIAN_POINT ( 'NONE',  ( 3.840629472727446691E-14, -1.347111479062088405E-15, 11.00000000000000000 ) ) ;
#256 = VECTOR ( 'NONE', #276, 1000.000000000000000 ) ;
#257 = AXIS2_PLACEMENT_3D ( 'NONE', #207, #128, #135 ) ;
#258 = CARTESIAN_POINT ( 'NONE',  ( 5.451685093518600372E-31, 1.274999999999994804, 1.561424668912869047E-16 ) ) ;
#259 = APPROVAL ( #296, 'UNSPECIFIED' ) ;
#260 = EDGE_LOOP ( 'NONE', ( #95, #50, #312, #224 ) ) ;
#261 = DIRECTION ( 'NONE',  ( -3.491481338843133355E-15, 1.224646799147353207E-16, -1.000000000000000000 ) ) ;
#262 = EDGE_CURVE ( 'NONE', #241, #16, #228, .T. ) ;
#263 = AXIS2_PLACEMENT_3D ( 'NONE', #327, #325, #190 ) ;
#264 = EDGE_CURVE ( 'NONE', #266, #241, #143, .T. ) ;
#265 = DIRECTION ( 'NONE',  ( 0.0000000000000000000, 1.000000000000000000, 0.0000000000000000000 ) ) ;
#266 = VERTEX_POINT ( 'NONE', #98 ) ;
#267 = AXIS2_PLACEMENT_3D ( 'NONE', #61, #162, #57 ) ;
#268 = DIRECTION ( 'NONE',  ( 0.0000000000000000000, 1.000000000000000000, 0.0000000000000000000 ) ) ;
#269 = EDGE_CURVE ( 'NONE', #200, #47, #79, .T. ) ;
#270 = FACE_OUTER_BOUND ( 'NONE', #73, .T. ) ;
#271 = ORIENTED_EDGE ( 'NONE', *, *, #76, .T. ) ;
#272 = CARTESIAN_POINT ( 'NONE',  ( 2.674814389190103498E-15, -9.381985931278996281E-17, 0.7660972892601441986 ) ) ;
#273 = MANIFOLD_SOLID_BREP ( 'Corps-Déplacer/Copier1[1]', #226 ) ;
#274 = MANIFOLD_SOLID_BREP ( 'Corps-Déplacer/Copier1[2]', #330 ) ;
#275 = APPROVAL ( #152, 'UNSPECIFIED' ) ;
#276 = DIRECTION ( 'NONE',  ( -3.491481338843133355E-15, 1.224646799147353207E-16, -1.000000000000000000 ) ) ;
#277 = EDGE_LOOP ( 'NONE', ( #336, #161 ) ) ;
#278 = AXIS2_PLACEMENT_3D ( 'NONE', #105, #209, #77 ) ;
#279 = VECTOR ( 'NONE', #74, 1000.000000000000000 ) ;
#280 = PERSON_AND_ORGANIZATION ( #23, #137 ) ;
#281 = ORIENTED_EDGE ( 'NONE', *, *, #262, .T. ) ;
#282 = DATE_TIME_ROLE ( 'creation_date' ) ;
#283 = DIRECTION ( 'NONE',  ( -3.491481338843133355E-15, 1.224646799147353207E-16, -1.000000000000000000 ) ) ;
#284 = ORIENTED_EDGE ( 'NONE', *, *, #76, .F. ) ;
#285 = APPROVAL_ROLE ( '' ) ;
#286 = ORIENTED_EDGE ( 'NONE', *, *, #326, .F. ) ;
#287 = ORIENTED_EDGE ( 'NONE', *, *, #262, .F. ) ;
#288 = DIRECTION ( 'NONE',  ( -2.382254525458724175E-15, -0.7071067811865452413, -0.7071067811865497932 ) ) ;
#289 = APPLICATION_PROTOCOL_DEFINITION ( 'international standard', 'config_control_design', 1994, #49 ) ;
#290 = VECTOR ( 'NONE', #154, 1000.000000000000000 ) ;
#291 = CC_DESIGN_PERSON_AND_ORGANIZATION_ASSIGNMENT ( #292, #247, ( #25 ) ) ;
#292 = PERSON_AND_ORGANIZATION ( #23, #137 ) ;
#293 = APPROVAL_PERSON_ORGANIZATION ( #197, #307, #285 ) ;
#294 = UNCERTAINTY_MEASURE_WITH_UNIT (LENGTH_MEASURE( 1.000000000000000082E-05 ), #9, 'distance_accuracy_value', 'NONE');
#295 = CARTESIAN_POINT ( 'NONE',  ( 9.390241641482923741E-14, -1.275000000000004574, 42.69999999999999574 ) ) ;
#296 = APPROVAL_STATUS ( 'not_yet_approved' ) ;
#297 = CIRCLE ( 'NONE', #147, 1.274999999999994138 ) ;
#298 = LOCAL_TIME ( 9, 22, 13.00000000000000000, #243 ) ;
#299 = DIRECTION ( 'NONE',  ( 1.798245827342160317E-15, -0.8571673007021098911, 0.5150380749100582634 ) ) ;
#300 = CARTESIAN_POINT ( 'NONE',  ( 1.501336975702547217E-13, 0.9749999999999943157, 43.00000000000000000 ) ) ;
#301 = SHAPE_DEFINITION_REPRESENTATION ( #186, #185 ) ;
#302 = LINE ( 'NONE', #158, #245 ) ;
#303 = EDGE_CURVE ( 'NONE', #200, #5, #126, .T. ) ;
#304 = VECTOR ( 'NONE', #261, 1000.000000000000000 ) ;
#305 = APPROVAL_STATUS ( 'not_yet_approved' ) ;
#306 = DIRECTION ( 'NONE',  ( 0.0000000000000000000, 1.000000000000000000, 0.0000000000000000000 ) ) ;
#307 = APPROVAL ( #305, 'UNSPECIFIED' ) ;
#308 = ORIENTED_EDGE ( 'NONE', *, *, #248, .F. ) ;
#309 = CARTESIAN_POINT ( 'NONE',  ( 1.501336975702547217E-13, -5.265981236333618470E-15, 43.00000000000000000 ) ) ;
#310 = CARTESIAN_POINT ( 'NONE',  ( 1.497477481343323287E-13, -0.9750000000000049738, 43.00000000000000000 ) ) ;
#311 = CARTESIAN_POINT ( 'NONE',  ( 3.840629472727446691E-14, 9.560968614469290249E-33, 11.00000000000000000 ) ) ;
#312 = ORIENTED_EDGE ( 'NONE', *, *, #318, .T. ) ;
#313 = ORIENTED_EDGE ( 'NONE', *, *, #328, .F. ) ;
#314 = CIRCLE ( 'NONE', #216, 1.274999999999995470 ) ;
#315 = LOCAL_TIME ( 9, 22, 13.00000000000000000, #24 ) ;
#316 = DIRECTION ( 'NONE',  ( -3.491481338843133355E-15, 1.224646799147353207E-16, -1.000000000000000000 ) ) ;
#317 = CARTESIAN_POINT ( 'NONE',  ( 1.502531006331716080E-13, -0.9750000000000049738, 43.00000000000000000 ) ) ;
#318 = EDGE_CURVE ( 'NONE', #5, #94, #302, .T. ) ;
#319 = DIRECTION ( 'NONE',  ( 4.275831445896958607E-31, 1.000000000000000000, 1.224646799147353207E-16 ) ) ;
#320 = DIRECTION ( 'NONE',  ( 3.021066579430971991E-31, 1.000000000000000000, 8.503546450866740258E-17 ) ) ;
#321 = ORIENTED_EDGE ( 'NONE', *, *, #264, .T. ) ;
#322 = ORIENTED_EDGE ( 'NONE', *, *, #43, .T. ) ;
#323 = AXIS2_PLACEMENT_3D ( 'NONE', #272, #112, #35 ) ;
#324 = LOCAL_TIME ( 9, 22, 13.00000000000000000, #149 ) ;
#325 = DIRECTION ( 'NONE',  ( -3.491481338843133355E-15, 1.224646799147353207E-16, -1.000000000000000000 ) ) ;
#326 = EDGE_CURVE ( 'NONE', #5, #21, #51, .T. ) ;
#327 = CARTESIAN_POINT ( 'NONE',  ( 1.501336975702547217E-13, -5.265981236333618470E-15, 43.00000000000000000 ) ) ;
#328 = EDGE_CURVE ( 'NONE', #266, #68, #150, .T. ) ;
#329 = FACE_OUTER_BOUND ( 'NONE', #260, .T. ) ;
#330 = CLOSED_SHELL ( 'NONE', ( #238, #213, #142, #203, #145 ) ) ;
#331 = EDGE_LOOP ( 'NONE', ( #227, #87, #234, #174 ) ) ;
#332 = LOCAL_TIME ( 9, 22, 13.00000000000000000, #223 ) ;
#333 = CC_DESIGN_DATE_AND_TIME_ASSIGNMENT ( #125, #282, ( #25 ) ) ;
#334 = CALENDAR_DATE ( 2021, 3, 9 ) ;
#335 = ORIENTED_EDGE ( 'NONE', *, *, #136, .F. ) ;
#336 = ORIENTED_EDGE ( 'NONE', *, *, #264, .F. ) ;
#337 = PERSON_AND_ORGANIZATION_ROLE ( 'design_supplier' ) ;
ENDSEC;
END-ISO-10303-21;
