ISO-10303-21;
HEADER;
FILE_DESCRIPTION (( 'STEP AP203' ),
    '1' );
FILE_NAME ('41513.step',
    '2021-09-02T13:22:48',
    ( '' ),
    ( '' ),
    'SwSTEP 2.0',
    'SolidWorks 2019',
    '' );
FILE_SCHEMA (( 'CONFIG_CONTROL_DESIGN' ));
ENDSEC;

DATA;
#1 = DIRECTION ( 'NONE',  ( -3.491481338843133355E-15, 1.224646799147353207E-16, -1.000000000000000000 ) ) ;
#2 = CC_DESIGN_DATE_AND_TIME_ASSIGNMENT ( #302, #98, ( #164 ) ) ;
#3 = APPROVAL_STATUS ( 'not_yet_approved' ) ;
#4 = CC_DESIGN_SECURITY_CLASSIFICATION ( #266, ( #143 ) ) ;
#5 = AXIS2_PLACEMENT_3D ( 'NONE', #269, #41, #118 ) ;
#6 = PERSON_AND_ORGANIZATION ( #154, #213 ) ;
#7 = PERSON_AND_ORGANIZATION ( #154, #213 ) ;
#8 = AXIS2_PLACEMENT_3D ( 'NONE', #48, #325, #103 ) ;
#9 = ADVANCED_FACE ( 'NONE', ( #226 ), #278, .F. ) ;
#10 = APPROVAL_PERSON_ORGANIZATION ( #289, #162, #186 ) ;
#11 = ORIENTED_EDGE ( 'NONE', *, *, #301, .F. ) ;
#12 = DIRECTION ( 'NONE',  ( 0.0000000000000000000, 0.0000000000000000000, 1.000000000000000000 ) ) ;
#13 = UNCERTAINTY_MEASURE_WITH_UNIT (LENGTH_MEASURE( 1.000000000000000082E-05 ), #174, 'distance_accuracy_value', 'NONE');
#14 = VECTOR ( 'NONE', #85, 999.9999999999998863 ) ;
#15 = AXIS2_PLACEMENT_3D ( 'NONE', #319, #218, #243 ) ;
#16 = CARTESIAN_POINT ( 'NONE',  ( 3.526396152231565067E-13, 5.999999999999986677, 101.0000000000000000 ) ) ;
#17 = CARTESIAN_POINT ( 'NONE',  ( 1.332214991097128475E-14, 5.999999999999986677, 3.605163714165394051 ) ) ;
#18 = DIRECTION ( 'NONE',  ( 4.275831445896958607E-31, 1.000000000000000000, 1.224646799147353207E-16 ) ) ;
#19 = FACE_OUTER_BOUND ( 'NONE', #120, .T. ) ;
#20 = EDGE_LOOP ( 'NONE', ( #247, #81, #202, #197 ) ) ;
#21 = PRODUCT_RELATED_PRODUCT_CATEGORY ( 'detail', '', ( #87 ) ) ;
#22 = ORIENTED_EDGE ( 'NONE', *, *, #211, .T. ) ;
#23 = EDGE_LOOP ( 'NONE', ( #89, #99 ) ) ;
#24 = DIRECTION ( 'NONE',  ( 0.0000000000000000000, 1.000000000000000000, 0.0000000000000000000 ) ) ;
#25 = DIRECTION ( 'NONE',  ( 3.491481338843133355E-15, -1.224646799147353207E-16, 1.000000000000000000 ) ) ;
#26 = AXIS2_PLACEMENT_3D ( 'NONE', #333, #1, #204 ) ;
#27 = CARTESIAN_POINT ( 'NONE',  ( 3.526396152231565067E-13, 4.499279347985553665E-32, 101.0000000000000000 ) ) ;
#28 = CARTESIAN_POINT ( 'NONE',  ( 7.347880794884096070E-16, -6.000000000000001776, -7.347880794884146360E-16 ) ) ;
#29 = DIRECTION ( 'NONE',  ( -3.491481338843133355E-15, 1.224646799147353207E-16, -1.000000000000000000 ) ) ;
#30 = AXIS2_PLACEMENT_3D ( 'NONE', #259, #12, #94 ) ;
#31 = PRODUCT_DEFINITION_SHAPE ( 'NONE', 'NONE',  #164 ) ;
#32 = DIRECTION ( 'NONE',  ( 3.491481338843133355E-15, -1.224646799147353207E-16, 1.000000000000000000 ) ) ;
#33 = EDGE_CURVE ( 'NONE', #222, #236, #165, .T. ) ;
#34 = DIRECTION ( 'NONE',  ( -5.135813185032640035E-31, -1.000000000000000000, -1.445602896647342368E-16 ) ) ;
#35 = CIRCLE ( 'NONE', #323, 5.999999999999998224 ) ;
#36 = FACE_OUTER_BOUND ( 'NONE', #279, .T. ) ;
#37 = AXIS2_PLACEMENT_3D ( 'NONE', #331, #300, #274 ) ;
#38 = ADVANCED_FACE ( 'NONE', ( #181 ), #155, .T. ) ;
#39 = APPLICATION_CONTEXT ( 'configuration controlled 3d designs of mechanical parts and assemblies' ) ;
#40 = CONICAL_SURFACE ( 'NONE', #235, 5.000000000000005329, 0.7853981633974473908 ) ;
#41 = DIRECTION ( 'NONE',  ( -3.491481338843133355E-15, 1.224646799147353207E-16, -1.000000000000000000 ) ) ;
#42 = APPLICATION_PROTOCOL_DEFINITION ( 'international standard', 'config_control_design', 1994, #39 ) ;
#43 = EDGE_CURVE ( 'NONE', #236, #177, #307, .T. ) ;
#44 = CC_DESIGN_PERSON_AND_ORGANIZATION_ASSIGNMENT ( #7, #184, ( #143 ) ) ;
#45 = DIRECTION ( 'NONE',  ( -3.491481338843133355E-15, 1.224646799147353207E-16, -1.000000000000000000 ) ) ;
#46 = APPROVAL_STATUS ( 'not_yet_approved' ) ;
#47 = VECTOR ( 'NONE', #148, 1000.000000000000000 ) ;
#48 = CARTESIAN_POINT ( 'NONE',  ( 5.272136821653131493E-13, 3.749399456654621030E-32, 151.0000000000000000 ) ) ;
#49 = DIRECTION ( 'NONE',  ( -4.275831445896958607E-31, -1.000000000000000000, -1.224646799147353207E-16 ) ) ;
#50 = CALENDAR_DATE ( 2021, 2, 9 ) ;
#51 = ORIENTED_EDGE ( 'NONE', *, *, #188, .T. ) ;
#52 = ORIENTED_EDGE ( 'NONE', *, *, #288, .F. ) ;
#53 = ORIENTED_EDGE ( 'NONE', *, *, #308, .F. ) ;
#54 = VECTOR ( 'NONE', #58, 1000.000000000000000 ) ;
#55 = DIRECTION ( 'NONE',  ( -3.491481338843133355E-15, 1.224646799147353207E-16, -1.000000000000000000 ) ) ;
#56 = ORIENTED_EDGE ( 'NONE', *, *, #280, .F. ) ;
#57 = EDGE_CURVE ( 'NONE', #173, #256, #191, .T. ) ;
#58 = DIRECTION ( 'NONE',  ( -3.491481338843133355E-15, 1.224646799147353207E-16, -1.000000000000000000 ) ) ;
#59 = CARTESIAN_POINT ( 'NONE',  ( 3.526396152231565067E-13, -1.236893267138826732E-14, 101.0000000000000000 ) ) ;
#60 = FACE_OUTER_BOUND ( 'NONE', #194, .T. ) ;
#61 = APPROVAL_PERSON_ORGANIZATION ( #63, #117, #112 ) ;
#62 = APPLICATION_CONTEXT ( 'configuration controlled 3d designs of mechanical parts and assemblies' ) ;
#63 = PERSON_AND_ORGANIZATION ( #154, #213 ) ;
#64 = SECURITY_CLASSIFICATION_LEVEL ( 'unclassified' ) ;
#65 = EDGE_LOOP ( 'NONE', ( #196, #299, #138, #146 ) ) ;
#66 = EDGE_CURVE ( 'NONE', #115, #75, #240, .T. ) ;
#67 = FACE_OUTER_BOUND ( 'NONE', #175, .T. ) ;
#68 = APPROVAL_PERSON_ORGANIZATION ( #76, #219, #294 ) ;
#69 = AXIS2_PLACEMENT_3D ( 'NONE', #195, #318, #18 ) ;
#70 = CALENDAR_DATE ( 2021, 2, 9 ) ;
#71 = ADVANCED_FACE ( 'NONE', ( #60 ), #237, .T. ) ;
#72 = DIRECTION ( 'NONE',  ( -3.491481338843133355E-15, 1.224646799147353207E-16, -1.000000000000000000 ) ) ;
#73 = DIRECTION ( 'NONE',  ( -3.491481338843133355E-15, 1.224646799147353207E-16, -1.000000000000000000 ) ) ;
#74 = PLANE ( 'NONE',  #8 ) ;
#75 = VERTEX_POINT ( 'NONE', #283 ) ;
#76 = PERSON_AND_ORGANIZATION ( #154, #213 ) ;
#77 = ORIENTED_EDGE ( 'NONE', *, *, #88, .T. ) ;
#78 = AXIS2_PLACEMENT_3D ( 'NONE', #147, #132, #105 ) ;
#79 = CARTESIAN_POINT ( 'NONE',  ( 7.347880794884085223E-16, -5.999999999999992895, -7.347880794884135513E-16 ) ) ;
#80 = CARTESIAN_POINT ( 'NONE',  ( 1.258736183148287071E-14, -4.415052202954832075E-16, 3.605163714165393163 ) ) ;
#81 = ORIENTED_EDGE ( 'NONE', *, *, #280, .T. ) ;
#82 = PERSON_AND_ORGANIZATION_ROLE ( 'design_owner' ) ;
#83 = LOCAL_TIME ( 15, 22, 48.00000000000000000, #210 ) ;
#84 = CALENDAR_DATE ( 2021, 2, 9 ) ;
#85 = DIRECTION ( 'NONE',  ( 1.903218546456022717E-15, 0.8571673007021097801, 0.5150380749100585964 ) ) ;
#86 = AXIS2_PLACEMENT_3D ( 'NONE', #27, #32, #309 ) ;
#87 = PRODUCT ( '41513', '41513', '', ( #144 ) ) ;
#88 = EDGE_CURVE ( 'NONE', #330, #303, #35, .T. ) ;
#89 = ORIENTED_EDGE ( 'NONE', *, *, #66, .T. ) ;
#90 = ADVANCED_FACE ( 'NONE', ( #245 ), #215, .T. ) ;
#91 = AXIS2_PLACEMENT_3D ( 'NONE', #80, #180, #34 ) ;
#92 = EDGE_CURVE ( 'NONE', #236, #222, #251, .T. ) ;
#93 =( NAMED_UNIT ( * ) SI_UNIT ( $, .STERADIAN. ) SOLID_ANGLE_UNIT ( ) );
#94 = DIRECTION ( 'NONE',  ( 1.000000000000000000, 0.0000000000000000000, 0.0000000000000000000 ) ) ;
#95 = APPROVAL_STATUS ( 'not_yet_approved' ) ;
#96 = AXIS2_PLACEMENT_3D ( 'NONE', #200, #45, #150 ) ;
#97 = DESIGN_CONTEXT ( 'detailed design', #62, 'design' ) ;
#98 = DATE_TIME_ROLE ( 'creation_date' ) ;
#99 = ORIENTED_EDGE ( 'NONE', *, *, #255, .T. ) ;
#100 = AXIS2_PLACEMENT_3D ( 'NONE', #59, #151, #153 ) ;
#101 = LOCAL_TIME ( 15, 22, 48.00000000000000000, #264 ) ;
#102 = AXIS2_PLACEMENT_3D ( 'NONE', #119, #190, #169 ) ;
#103 = DIRECTION ( 'NONE',  ( 4.275831445896958607E-31, 1.000000000000000000, 1.224646799147353207E-16 ) ) ;
#104 = ORIENTED_EDGE ( 'NONE', *, *, #159, .F. ) ;
#105 = DIRECTION ( 'NONE',  ( 5.135813185032640035E-31, 1.000000000000000000, 1.445602896647342368E-16 ) ) ;
#106 = CARTESIAN_POINT ( 'NONE',  ( 0.0000000000000000000, 0.0000000000000000000, 0.0000000000000000000 ) ) ;
#107 = DIRECTION ( 'NONE',  ( 0.0000000000000000000, 1.000000000000000000, 0.0000000000000000000 ) ) ;
#108 = ADVANCED_FACE ( 'NONE', ( #292 ), #290, .T. ) ;
#109 = LOCAL_TIME ( 15, 22, 48.00000000000000000, #241 ) ;
#110 = LINE ( 'NONE', #248, #257 ) ;
#111 = EDGE_LOOP ( 'NONE', ( #282, #123, #265, #225 ) ) ;
#112 = APPROVAL_ROLE ( '' ) ;
#113 = ADVANCED_FACE ( 'NONE', ( #67 ), #216, .T. ) ;
#114 = VECTOR ( 'NONE', #73, 1000.000000000000000 ) ;
#115 = VERTEX_POINT ( 'NONE', #16 ) ;
#116 = CONICAL_SURFACE ( 'NONE', #136, 5.000000000000005329, 0.7853981633974473908 ) ;
#117 = APPROVAL ( #3, 'UNSPECIFIED' ) ;
#118 = DIRECTION ( 'NONE',  ( 4.275831445896958607E-31, 1.000000000000000000, 1.224646799147353207E-16 ) ) ;
#119 = CARTESIAN_POINT ( 'NONE',  ( 5.272136821653131493E-13, -1.849216666712503261E-14, 151.0000000000000000 ) ) ;
#120 = EDGE_LOOP ( 'NONE', ( #244, #328, #220, #56 ) ) ;
#121 = CARTESIAN_POINT ( 'NONE',  ( 5.272136821653131493E-13, -1.849216666712503261E-14, 151.0000000000000000 ) ) ;
#122 = CARTESIAN_POINT ( 'NONE',  ( 4.389156961043015776E-13, -6.000000000000023093, 150.0000000000000000 ) ) ;
#123 = ORIENTED_EDGE ( 'NONE', *, *, #214, .T. ) ;
#124 = VECTOR ( 'NONE', #252, 1000.000000000000000 ) ;
#125 = EDGE_LOOP ( 'NONE', ( #324, #310 ) ) ;
#126 = CC_DESIGN_PERSON_AND_ORGANIZATION_ASSIGNMENT ( #163, #82, ( #87 ) ) ;
#127 = ORIENTED_EDGE ( 'NONE', *, *, #92, .F. ) ;
#128 = VERTEX_POINT ( 'NONE', #122 ) ;
#129 = CLOSED_SHELL ( 'NONE', ( #326, #113, #9, #108, #262, #158 ) ) ;
#130 = CARTESIAN_POINT ( 'NONE',  ( 5.237222008264700285E-13, 5.999999999999986677, 150.0000000000000000 ) ) ;
#131 = DIRECTION ( 'NONE',  ( -2.468850131082267710E-15, 0.7071067811865470176, -0.7071067811865481278 ) ) ;
#132 = DIRECTION ( 'NONE',  ( -3.491481338843133355E-15, 1.224646799147353207E-16, -1.000000000000000000 ) ) ;
#133 = CARTESIAN_POINT ( 'NONE',  ( 5.237222008264700285E-13, -1.836970198721029747E-14, 150.0000000000000000 ) ) ;
#134 = FACE_OUTER_BOUND ( 'NONE', #125, .T. ) ;
#135 = PERSON_AND_ORGANIZATION_ROLE ( 'design_supplier' ) ;
#136 = AXIS2_PLACEMENT_3D ( 'NONE', #121, #337, #228 ) ;
#137 = PERSON_AND_ORGANIZATION_ROLE ( 'classification_officer' ) ;
#138 = ORIENTED_EDGE ( 'NONE', *, *, #296, .T. ) ;
#139 = CC_DESIGN_PERSON_AND_ORGANIZATION_ASSIGNMENT ( #263, #140, ( #164 ) ) ;
#140 = PERSON_AND_ORGANIZATION_ROLE ( 'creator' ) ;
#141 = SHAPE_DEFINITION_REPRESENTATION ( #31, #187 ) ;
#142 = EDGE_CURVE ( 'NONE', #303, #330, #313, .T. ) ;
#143 = PRODUCT_DEFINITION_FORMATION_WITH_SPECIFIED_SOURCE ( 'ANY', '', #87, .NOT_KNOWN. ) ;
#144 = MECHANICAL_CONTEXT ( 'NONE', #39, 'mechanical' ) ;
#145 = DATE_AND_TIME ( #50, #250 ) ;
#146 = ORIENTED_EDGE ( 'NONE', *, *, #57, .F. ) ;
#147 = CARTESIAN_POINT ( 'NONE',  ( 1.258736183148287071E-14, -4.415052202954832075E-16, 3.605163714165393163 ) ) ;
#148 = DIRECTION ( 'NONE',  ( -3.491481338843133355E-15, 1.224646799147353207E-16, -1.000000000000000000 ) ) ;
#149 = CARTESIAN_POINT ( 'NONE',  ( 1.258736183148286755E-14, -5.999999999999987566, 3.605163714165392275 ) ) ;
#150 = DIRECTION ( 'NONE',  ( 0.0000000000000000000, 1.000000000000000000, 0.0000000000000000000 ) ) ;
#151 = DIRECTION ( 'NONE',  ( -3.491481338843133355E-15, 1.224646799147353207E-16, -1.000000000000000000 ) ) ;
#152 = DIRECTION ( 'NONE',  ( -3.491481338843133355E-15, 1.224646799147353207E-16, -1.000000000000000000 ) ) ;
#153 = DIRECTION ( 'NONE',  ( 0.0000000000000000000, 1.000000000000000000, 0.0000000000000000000 ) ) ;
#154 = PERSON ( 'UNSPECIFIED', 'UNSPECIFIED', 'UNSPECIFIED', ('UNSPECIFIED'), ('UNSPECIFIED'), ('UNSPECIFIED') ) ;
#155 = CYLINDRICAL_SURFACE ( 'NONE', #26, 5.999999999999992895 ) ;
#156 = LINE ( 'NONE', #258, #14 ) ;
#157 = CONICAL_SURFACE ( 'NONE', #261, 5.999999999999986677, 1.029744258676649649 ) ;
#158 = ADVANCED_FACE ( 'NONE', ( #270 ), #74, .F. ) ;
#159 = EDGE_CURVE ( 'NONE', #177, #115, #281, .T. ) ;
#160 = CC_DESIGN_APPROVAL ( #219, ( #143 ) ) ;
#161 = ORIENTED_EDGE ( 'NONE', *, *, #192, .T. ) ;
#162 = APPROVAL ( #95, 'UNSPECIFIED' ) ;
#163 = PERSON_AND_ORGANIZATION ( #154, #213 ) ;
#164 = PRODUCT_DEFINITION ( 'UNKNOWN', '', #143, #97 ) ;
#165 = CIRCLE ( 'NONE', #268, 5.000000000000005329 ) ;
#166 = MANIFOLD_SOLID_BREP ( 'Corps-Déplacer/Copier1[2]', #227 ) ;
#167 = MANIFOLD_SOLID_BREP ( 'Corps-Déplacer/Copier1[1]', #129 ) ;
#168 = DATE_AND_TIME ( #70, #101 ) ;
#169 = DIRECTION ( 'NONE',  ( 0.0000000000000000000, 1.000000000000000000, 0.0000000000000000000 ) ) ;
#170 = AXIS2_PLACEMENT_3D ( 'NONE', #193, #72, #171 ) ;
#171 = DIRECTION ( 'NONE',  ( 0.0000000000000000000, 1.000000000000000000, 0.0000000000000000000 ) ) ;
#172 = CIRCLE ( 'NONE', #78, 5.999999999999986677 ) ;
#173 = VERTEX_POINT ( 'NONE', #249 ) ;
#174 =( LENGTH_UNIT ( ) NAMED_UNIT ( * ) SI_UNIT ( .MILLI., .METRE. ) );
#175 = EDGE_LOOP ( 'NONE', ( #22, #51, #275, #104 ) ) ;
#176 = AXIS2_PLACEMENT_3D ( 'NONE', #233, #55, #209 ) ;
#177 = VERTEX_POINT ( 'NONE', #130 ) ;
#178 = CARTESIAN_POINT ( 'NONE',  ( 5.272136821653131493E-13, 4.999999999999986677, 151.0000000000000000 ) ) ;
#179 = CIRCLE ( 'NONE', #37, 6.000000000000004441 ) ;
#180 = DIRECTION ( 'NONE',  ( 3.491481338843133355E-15, -1.224646799147353207E-16, 1.000000000000000000 ) ) ;
#181 = FACE_OUTER_BOUND ( 'NONE', #65, .T. ) ;
#182 = APPLICATION_PROTOCOL_DEFINITION ( 'international standard', 'config_control_design', 1994, #62 ) ;
#183 = CIRCLE ( 'NONE', #238, 6.000000000000004441 ) ;
#184 = PERSON_AND_ORGANIZATION_ROLE ( 'creator' ) ;
#185 = COORDINATED_UNIVERSAL_TIME_OFFSET ( 1, 0, .AHEAD. ) ;
#186 = APPROVAL_ROLE ( '' ) ;
#187 = ADVANCED_BREP_SHAPE_REPRESENTATION ( '41513', ( #167, #166, #30 ), #316 ) ;
#188 = EDGE_CURVE ( 'NONE', #128, #75, #203, .T. ) ;
#189 = ORIENTED_EDGE ( 'NONE', *, *, #57, .T. ) ;
#190 = DIRECTION ( 'NONE',  ( -3.491481338843133355E-15, 1.224646799147353207E-16, -1.000000000000000000 ) ) ;
#191 = CIRCLE ( 'NONE', #176, 5.999999999999986677 ) ;
#192 = EDGE_CURVE ( 'NONE', #303, #173, #335, .T. ) ;
#193 = CARTESIAN_POINT ( 'NONE',  ( 3.526396152231565067E-13, -1.236893267138826732E-14, 101.0000000000000000 ) ) ;
#194 = EDGE_LOOP ( 'NONE', ( #11, #242, #295 ) ) ;
#195 = CARTESIAN_POINT ( 'NONE',  ( 0.0000000000000000000, 0.0000000000000000000, 0.0000000000000000000 ) ) ;
#196 = ORIENTED_EDGE ( 'NONE', *, *, #192, .F. ) ;
#197 = ORIENTED_EDGE ( 'NONE', *, *, #255, .F. ) ;
#198 = DIRECTION ( 'NONE',  ( -2.382254525458719047E-15, -0.7071067811865467956, -0.7071067811865483499 ) ) ;
#199 = LINE ( 'NONE', #276, #114 ) ;
#200 = CARTESIAN_POINT ( 'NONE',  ( 3.526396152231565067E-13, -1.236893267138826732E-14, 101.0000000000000000 ) ) ;
#201 = CALENDAR_DATE ( 2021, 2, 9 ) ;
#202 = ORIENTED_EDGE ( 'NONE', *, *, #159, .T. ) ;
#203 = LINE ( 'NONE', #28, #54 ) ;
#204 = DIRECTION ( 'NONE',  ( 4.275831445896958607E-31, 1.000000000000000000, 1.224646799147353207E-16 ) ) ;
#205 = CC_DESIGN_APPROVAL ( #162, ( #266 ) ) ;
#206 = CARTESIAN_POINT ( 'NONE',  ( 3.526396152231565067E-13, 5.999999999999986677, 101.0000000000000000 ) ) ;
#207 = DIRECTION ( 'NONE',  ( -3.491481338843133355E-15, 1.224646799147353207E-16, -1.000000000000000000 ) ) ;
#208 = CARTESIAN_POINT ( 'NONE',  ( 2.565498867538175865E-30, 6.000000000000001776, 7.347880794884121708E-16 ) ) ;
#209 = DIRECTION ( 'NONE',  ( 5.135813185032640035E-31, 1.000000000000000000, 1.445602896647342368E-16 ) ) ;
#210 = COORDINATED_UNIVERSAL_TIME_OFFSET ( 1, 0, .AHEAD. ) ;
#211 = EDGE_CURVE ( 'NONE', #177, #128, #183, .T. ) ;
#212 = PLANE ( 'NONE',  #321 ) ;
#213 = ORGANIZATION ( 'UNSPECIFIED', 'UNSPECIFIED', '' ) ;
#214 = EDGE_CURVE ( 'NONE', #222, #128, #110, .T. ) ;
#215 = CYLINDRICAL_SURFACE ( 'NONE', #69, 5.999999999999992895 ) ;
#216 = CYLINDRICAL_SURFACE ( 'NONE', #15, 6.000000000000001776 ) ;
#217 = CIRCLE ( 'NONE', #96, 5.999999999999998224 ) ;
#218 = DIRECTION ( 'NONE',  ( -3.491481338843133355E-15, 1.224646799147353207E-16, -1.000000000000000000 ) ) ;
#219 = APPROVAL ( #46, 'UNSPECIFIED' ) ;
#220 = ORIENTED_EDGE ( 'NONE', *, *, #43, .T. ) ;
#221 = ADVANCED_FACE ( 'NONE', ( #134 ), #212, .T. ) ;
#222 = VERTEX_POINT ( 'NONE', #332 ) ;
#223 = FACE_OUTER_BOUND ( 'NONE', #111, .T. ) ;
#224 = LOCAL_TIME ( 15, 22, 48.00000000000000000, #185 ) ;
#225 = ORIENTED_EDGE ( 'NONE', *, *, #43, .F. ) ;
#226 = FACE_OUTER_BOUND ( 'NONE', #23, .T. ) ;
#227 = CLOSED_SHELL ( 'NONE', ( #90, #71, #311, #38, #221 ) ) ;
#228 = DIRECTION ( 'NONE',  ( 0.0000000000000000000, 1.000000000000000000, 0.0000000000000000000 ) ) ;
#229 = VERTEX_POINT ( 'NONE', #106 ) ;
#230 = DATE_TIME_ROLE ( 'classification_date' ) ;
#231 = CARTESIAN_POINT ( 'NONE',  ( 1.833482766068077912E-13, -6.000000000000010658, 101.0000000000000000 ) ) ;
#232 = DIRECTION ( 'NONE',  ( 0.0000000000000000000, 1.000000000000000000, 0.0000000000000000000 ) ) ;
#233 = CARTESIAN_POINT ( 'NONE',  ( 1.258736183148287071E-14, -4.415052202954832075E-16, 3.605163714165393163 ) ) ;
#234 = DATE_AND_TIME ( #201, #83 ) ;
#235 = AXIS2_PLACEMENT_3D ( 'NONE', #304, #297, #24 ) ;
#236 = VERTEX_POINT ( 'NONE', #246 ) ;
#237 = CONICAL_SURFACE ( 'NONE', #91, 5.999999999999986677, 1.029744258676649649 ) ;
#238 = AXIS2_PLACEMENT_3D ( 'NONE', #133, #152, #232 ) ;
#239 = CARTESIAN_POINT ( 'NONE',  ( 3.526396152231565067E-13, 4.499279347985553665E-32, 101.0000000000000000 ) ) ;
#240 = CIRCLE ( 'NONE', #100, 5.999999999999998224 ) ;
#241 = COORDINATED_UNIVERSAL_TIME_OFFSET ( 1, 0, .AHEAD. ) ;
#242 = ORIENTED_EDGE ( 'NONE', *, *, #308, .T. ) ;
#243 = DIRECTION ( 'NONE',  ( 4.275831445896958607E-31, 1.000000000000000000, 1.224646799147353207E-16 ) ) ;
#244 = ORIENTED_EDGE ( 'NONE', *, *, #214, .F. ) ;
#245 = FACE_OUTER_BOUND ( 'NONE', #272, .T. ) ;
#246 = CARTESIAN_POINT ( 'NONE',  ( 5.272136821653131493E-13, 4.999999999999986677, 151.0000000000000000 ) ) ;
#247 = ORIENTED_EDGE ( 'NONE', *, *, #188, .F. ) ;
#248 = CARTESIAN_POINT ( 'NONE',  ( 5.278260055648867493E-13, -5.000000000000023093, 151.0000000000000000 ) ) ;
#249 = CARTESIAN_POINT ( 'NONE',  ( 1.258736183148286755E-14, -5.999999999999987566, 3.605163714165392275 ) ) ;
#250 = LOCAL_TIME ( 15, 22, 48.00000000000000000, #271 ) ;
#251 = CIRCLE ( 'NONE', #102, 5.000000000000005329 ) ;
#252 = DIRECTION ( 'NONE',  ( 1.798245827342160317E-15, -0.8571673007021098911, 0.5150380749100582634 ) ) ;
#253 = EDGE_LOOP ( 'NONE', ( #127, #336 ) ) ;
#254 = CARTESIAN_POINT ( 'NONE',  ( 3.526396152231565067E-13, -1.236893267138826732E-14, 101.0000000000000000 ) ) ;
#255 = EDGE_CURVE ( 'NONE', #75, #115, #217, .T. ) ;
#256 = VERTEX_POINT ( 'NONE', #17 ) ;
#257 = VECTOR ( 'NONE', #198, 1000.000000000000000 ) ;
#258 = CARTESIAN_POINT ( 'NONE',  ( 1.332214991097128475E-14, 5.999999999999986677, 3.605163714165394051 ) ) ;
#259 = CARTESIAN_POINT ( 'NONE',  ( 0.0000000000000000000, 0.0000000000000000000, 0.0000000000000000000 ) ) ;
#260 = ORIENTED_EDGE ( 'NONE', *, *, #296, .F. ) ;
#261 = AXIS2_PLACEMENT_3D ( 'NONE', #267, #287, #291 ) ;
#262 = ADVANCED_FACE ( 'NONE', ( #19 ), #116, .T. ) ;
#263 = PERSON_AND_ORGANIZATION ( #154, #213 ) ;
#264 = COORDINATED_UNIVERSAL_TIME_OFFSET ( 1, 0, .AHEAD. ) ;
#265 = ORIENTED_EDGE ( 'NONE', *, *, #211, .F. ) ;
#266 = SECURITY_CLASSIFICATION ( '', '', #64 ) ;
#267 = CARTESIAN_POINT ( 'NONE',  ( 1.258736183148287071E-14, -4.415052202954832075E-16, 3.605163714165393163 ) ) ;
#268 = AXIS2_PLACEMENT_3D ( 'NONE', #329, #207, #107 ) ;
#269 = CARTESIAN_POINT ( 'NONE',  ( 0.0000000000000000000, 0.0000000000000000000, 0.0000000000000000000 ) ) ;
#270 = FACE_OUTER_BOUND ( 'NONE', #253, .T. ) ;
#271 = COORDINATED_UNIVERSAL_TIME_OFFSET ( 1, 0, .AHEAD. ) ;
#272 = EDGE_LOOP ( 'NONE', ( #77, #161, #52, #260 ) ) ;
#273 = CC_DESIGN_PERSON_AND_ORGANIZATION_ASSIGNMENT ( #314, #137, ( #266 ) ) ;
#274 = DIRECTION ( 'NONE',  ( 0.0000000000000000000, 1.000000000000000000, 0.0000000000000000000 ) ) ;
#275 = ORIENTED_EDGE ( 'NONE', *, *, #66, .F. ) ;
#276 = CARTESIAN_POINT ( 'NONE',  ( 2.565498867538172361E-30, 5.999999999999992895, 7.347880794884110861E-16 ) ) ;
#277 = VECTOR ( 'NONE', #306, 1000.000000000000000 ) ;
#278 = PLANE ( 'NONE',  #86 ) ;
#279 = EDGE_LOOP ( 'NONE', ( #53, #322, #189 ) ) ;
#280 = EDGE_CURVE ( 'NONE', #128, #177, #179, .T. ) ;
#281 = LINE ( 'NONE', #208, #47 ) ;
#282 = ORIENTED_EDGE ( 'NONE', *, *, #92, .T. ) ;
#283 = CARTESIAN_POINT ( 'NONE',  ( 4.389156961043016785E-13, -6.000000000000010658, 101.0000000000000000 ) ) ;
#284 = APPROVAL_DATE_TIME ( #285, #117 ) ;
#285 = DATE_AND_TIME ( #84, #224 ) ;
#286 = APPROVAL_DATE_TIME ( #168, #162 ) ;
#287 = DIRECTION ( 'NONE',  ( 3.491481338843133355E-15, -1.224646799147353207E-16, 1.000000000000000000 ) ) ;
#288 = EDGE_CURVE ( 'NONE', #256, #173, #172, .T. ) ;
#289 = PERSON_AND_ORGANIZATION ( #154, #213 ) ;
#290 = CYLINDRICAL_SURFACE ( 'NONE', #5, 6.000000000000001776 ) ;
#291 = DIRECTION ( 'NONE',  ( -5.135813185032640035E-31, -1.000000000000000000, -1.445602896647342368E-16 ) ) ;
#292 = FACE_OUTER_BOUND ( 'NONE', #20, .T. ) ;
#293 = DIRECTION ( 'NONE',  ( 0.0000000000000000000, 1.000000000000000000, 0.0000000000000000000 ) ) ;
#294 = APPROVAL_ROLE ( '' ) ;
#295 = ORIENTED_EDGE ( 'NONE', *, *, #288, .T. ) ;
#296 = EDGE_CURVE ( 'NONE', #330, #256, #199, .T. ) ;
#297 = DIRECTION ( 'NONE',  ( -3.491481338843133355E-15, 1.224646799147353207E-16, -1.000000000000000000 ) ) ;
#298 = APPROVAL_DATE_TIME ( #145, #219 ) ;
#299 = ORIENTED_EDGE ( 'NONE', *, *, #142, .T. ) ;
#300 = DIRECTION ( 'NONE',  ( -3.491481338843133355E-15, 1.224646799147353207E-16, -1.000000000000000000 ) ) ;
#301 = EDGE_CURVE ( 'NONE', #229, #173, #334, .T. ) ;
#302 = DATE_AND_TIME ( #320, #109 ) ;
#303 = VERTEX_POINT ( 'NONE', #231 ) ;
#304 = CARTESIAN_POINT ( 'NONE',  ( 5.272136821653131493E-13, -1.849216666712503261E-14, 151.0000000000000000 ) ) ;
#305 = CC_DESIGN_APPROVAL ( #117, ( #164 ) ) ;
#306 = DIRECTION ( 'NONE',  ( -3.491481338843133355E-15, 1.224646799147353207E-16, -1.000000000000000000 ) ) ;
#307 = LINE ( 'NONE', #178, #312 ) ;
#308 = EDGE_CURVE ( 'NONE', #229, #256, #156, .T. ) ;
#309 = DIRECTION ( 'NONE',  ( -4.275831445896958607E-31, -1.000000000000000000, -1.224646799147353207E-16 ) ) ;
#310 = ORIENTED_EDGE ( 'NONE', *, *, #142, .F. ) ;
#311 = ADVANCED_FACE ( 'NONE', ( #36 ), #157, .T. ) ;
#312 = VECTOR ( 'NONE', #131, 1000.000000000000000 ) ;
#313 = CIRCLE ( 'NONE', #170, 5.999999999999998224 ) ;
#314 = PERSON_AND_ORGANIZATION ( #154, #213 ) ;
#315 = CC_DESIGN_PERSON_AND_ORGANIZATION_ASSIGNMENT ( #6, #135, ( #143 ) ) ;
#316 =( GEOMETRIC_REPRESENTATION_CONTEXT ( 3 ) GLOBAL_UNCERTAINTY_ASSIGNED_CONTEXT ( ( #13 ) ) GLOBAL_UNIT_ASSIGNED_CONTEXT ( ( #174, #327, #93 ) ) REPRESENTATION_CONTEXT ( 'NONE', 'WORKASPACE' ) );
#317 = CC_DESIGN_DATE_AND_TIME_ASSIGNMENT ( #234, #230, ( #266 ) ) ;
#318 = DIRECTION ( 'NONE',  ( -3.491481338843133355E-15, 1.224646799147353207E-16, -1.000000000000000000 ) ) ;
#319 = CARTESIAN_POINT ( 'NONE',  ( 0.0000000000000000000, 0.0000000000000000000, 0.0000000000000000000 ) ) ;
#320 = CALENDAR_DATE ( 2021, 2, 9 ) ;
#321 = AXIS2_PLACEMENT_3D ( 'NONE', #239, #25, #49 ) ;
#322 = ORIENTED_EDGE ( 'NONE', *, *, #301, .T. ) ;
#323 = AXIS2_PLACEMENT_3D ( 'NONE', #254, #29, #293 ) ;
#324 = ORIENTED_EDGE ( 'NONE', *, *, #88, .F. ) ;
#325 = DIRECTION ( 'NONE',  ( -3.491481338843133355E-15, 1.224646799147353207E-16, -1.000000000000000000 ) ) ;
#326 = ADVANCED_FACE ( 'NONE', ( #223 ), #40, .T. ) ;
#327 =( NAMED_UNIT ( * ) PLANE_ANGLE_UNIT ( ) SI_UNIT ( $, .RADIAN. ) );
#328 = ORIENTED_EDGE ( 'NONE', *, *, #33, .T. ) ;
#329 = CARTESIAN_POINT ( 'NONE',  ( 5.272136821653131493E-13, -1.849216666712503261E-14, 151.0000000000000000 ) ) ;
#330 = VERTEX_POINT ( 'NONE', #206 ) ;
#331 = CARTESIAN_POINT ( 'NONE',  ( 5.237222008264700285E-13, -1.836970198721029747E-14, 150.0000000000000000 ) ) ;
#332 = CARTESIAN_POINT ( 'NONE',  ( 5.261414972354226196E-13, -5.000000000000023093, 151.0000000000000000 ) ) ;
#333 = CARTESIAN_POINT ( 'NONE',  ( 0.0000000000000000000, 0.0000000000000000000, 0.0000000000000000000 ) ) ;
#334 = LINE ( 'NONE', #149, #124 ) ;
#335 = LINE ( 'NONE', #79, #277 ) ;
#336 = ORIENTED_EDGE ( 'NONE', *, *, #33, .F. ) ;
#337 = DIRECTION ( 'NONE',  ( -3.491481338843133355E-15, 1.224646799147353207E-16, -1.000000000000000000 ) ) ;
ENDSEC;
END-ISO-10303-21;
