ISO-10303-21;
HEADER;
FILE_DESCRIPTION (( 'STEP AP203' ),
    '1' );
FILE_NAME ('41512.step',
    '2021-09-02T13:22:47',
    ( '' ),
    ( '' ),
    'SwSTEP 2.0',
    'SolidWorks 2019',
    '' );
FILE_SCHEMA (( 'CONFIG_CONTROL_DESIGN' ));
ENDSEC;

DATA;
#1 = DIRECTION ( 'NONE',  ( -3.491481338843133355E-15, 1.224646799147353207E-16, -1.000000000000000000 ) ) ;
#2 = CONICAL_SURFACE ( 'NONE', #39, 2.750000000000010658, 0.7853981633974340681 ) ;
#3 = APPROVAL ( #94, 'UNSPECIFIED' ) ;
#4 = ORIENTED_EDGE ( 'NONE', *, *, #208, .F. ) ;
#5 = CARTESIAN_POINT ( 'NONE',  ( 0.0000000000000000000, 0.0000000000000000000, 0.0000000000000000000 ) ) ;
#6 = AXIS2_PLACEMENT_3D ( 'NONE', #83, #253, #40 ) ;
#7 = COORDINATED_UNIVERSAL_TIME_OFFSET ( 1, 0, .AHEAD. ) ;
#8 = VECTOR ( 'NONE', #153, 1000.000000000000000 ) ;
#9 = CALENDAR_DATE ( 2021, 2, 9 ) ;
#10 = LOCAL_TIME ( 15, 22, 47.00000000000000000, #200 ) ;
#11 = CIRCLE ( 'NONE', #262, 3.450000000000005507 ) ;
#12 = ORIENTED_EDGE ( 'NONE', *, *, #300, .T. ) ;
#13 = ADVANCED_FACE ( 'NONE', ( #263 ), #137, .T. ) ;
#14 = ORIENTED_EDGE ( 'NONE', *, *, #36, .F. ) ;
#15 = VERTEX_POINT ( 'NONE', #76 ) ;
#16 = DATE_TIME_ROLE ( 'classification_date' ) ;
#17 = CIRCLE ( 'NONE', #323, 3.450000000000010836 ) ;
#18 = CC_DESIGN_APPROVAL ( #139, ( #314 ) ) ;
#19 = APPROVAL_DATE_TIME ( #121, #139 ) ;
#20 = CLOSED_SHELL ( 'NONE', ( #92, #157, #13, #308, #117 ) ) ;
#21 = CALENDAR_DATE ( 2021, 2, 9 ) ;
#22 = DIRECTION ( 'NONE',  ( 0.0000000000000000000, 1.000000000000000000, 0.0000000000000000000 ) ) ;
#23 = APPROVAL ( #207, 'UNSPECIFIED' ) ;
#24 = CARTESIAN_POINT ( 'NONE',  ( 7.660236198808498870E-15, 3.449999999999997513, 2.072969135645104544 ) ) ;
#25 = DIRECTION ( 'NONE',  ( 4.275831445896958607E-31, 1.000000000000000000, 1.224646799147353207E-16 ) ) ;
#26 = LOCAL_TIME ( 15, 22, 47.00000000000000000, #290 ) ;
#27 = ORIENTED_EDGE ( 'NONE', *, *, #68, .T. ) ;
#28 = CARTESIAN_POINT ( 'NONE',  ( 3.781274289967112982E-13, -1.326292483476583264E-14, 108.2999999999999829 ) ) ;
#29 = APPLICATION_PROTOCOL_DEFINITION ( 'international standard', 'config_control_design', 1994, #42 ) ;
#30 = CIRCLE ( 'NONE', #248, 3.450000000000005507 ) ;
#31 = CARTESIAN_POINT ( 'NONE',  ( 3.797290879730421123E-13, -2.750000000000023981, 109.0000000000000000 ) ) ;
#32 = DIRECTION ( 'NONE',  ( -3.491481338843133355E-15, 1.224646799147353207E-16, -1.000000000000000000 ) ) ;
#33 = DIRECTION ( 'NONE',  ( 1.903218546456021928E-15, 0.8571673007021098911, 0.5150380749100583744 ) ) ;
#34 = DIRECTION ( 'NONE',  ( 4.275831445896958607E-31, 1.000000000000000000, 1.224646799147353207E-16 ) ) ;
#35 = CARTESIAN_POINT ( 'NONE',  ( 0.0000000000000000000, 0.0000000000000000000, 0.0000000000000000000 ) ) ;
#36 = EDGE_CURVE ( 'NONE', #219, #221, #11, .T. ) ;
#37 = ORIENTED_EDGE ( 'NONE', *, *, #260, .F. ) ;
#38 = FACE_OUTER_BOUND ( 'NONE', #182, .T. ) ;
#39 = AXIS2_PLACEMENT_3D ( 'NONE', #241, #274, #22 ) ;
#40 = DIRECTION ( 'NONE',  ( 0.0000000000000000000, 1.000000000000000000, 0.0000000000000000000 ) ) ;
#41 = ORIENTED_EDGE ( 'NONE', *, *, #90, .T. ) ;
#42 = APPLICATION_CONTEXT ( 'configuration controlled 3d designs of mechanical parts and assemblies' ) ;
#43 = EDGE_CURVE ( 'NONE', #116, #235, #53, .T. ) ;
#44 = AXIS2_PLACEMENT_3D ( 'NONE', #179, #304, #280 ) ;
#45 = LOCAL_TIME ( 15, 22, 47.00000000000000000, #49 ) ;
#46 = DATE_AND_TIME ( #9, #62 ) ;
#47 = ADVANCED_FACE ( 'NONE', ( #96 ), #2, .T. ) ;
#48 = AXIS2_PLACEMENT_3D ( 'NONE', #103, #80, #25 ) ;
#49 = COORDINATED_UNIVERSAL_TIME_OFFSET ( 1, 0, .AHEAD. ) ;
#50 = PERSON_AND_ORGANIZATION_ROLE ( 'design_supplier' ) ;
#51 = PERSON_AND_ORGANIZATION ( #271, #89 ) ;
#52 = PERSON_AND_ORGANIZATION_ROLE ( 'classification_officer' ) ;
#53 = LINE ( 'NONE', #174, #240 ) ;
#54 = DIRECTION ( 'NONE',  ( 0.0000000000000000000, 1.000000000000000000, 0.0000000000000000000 ) ) ;
#55 = DIRECTION ( 'NONE',  ( -4.275831445896958607E-31, -1.000000000000000000, -1.224646799147353207E-16 ) ) ;
#56 = DIRECTION ( 'NONE',  ( -3.491481338843133355E-15, 1.224646799147353207E-16, -1.000000000000000000 ) ) ;
#57 = CARTESIAN_POINT ( 'NONE',  ( 1.475161848834451411E-30, 3.450000000000001510, 4.225031457058370303E-16 ) ) ;
#58 = APPROVAL_PERSON_ORGANIZATION ( #140, #3, #119 ) ;
#59 = ADVANCED_FACE ( 'NONE', ( #298 ), #170, .F. ) ;
#60 = DIRECTION ( 'NONE',  ( 0.0000000000000000000, 1.000000000000000000, 0.0000000000000000000 ) ) ;
#61 = CYLINDRICAL_SURFACE ( 'NONE', #231, 3.450000000000008171 ) ;
#62 = LOCAL_TIME ( 15, 22, 47.00000000000000000, #142 ) ;
#63 = ORIENTED_EDGE ( 'NONE', *, *, #70, .T. ) ;
#64 = ORIENTED_EDGE ( 'NONE', *, *, #277, .F. ) ;
#65 = DATE_AND_TIME ( #184, #203 ) ;
#66 = ORIENTED_EDGE ( 'NONE', *, *, #90, .F. ) ;
#67 = DIRECTION ( 'NONE',  ( -2.382254525458752574E-15, -0.7071067811865373587, -0.7071067811865577868 ) ) ;
#68 = EDGE_CURVE ( 'NONE', #330, #72, #73, .T. ) ;
#69 = AXIS2_PLACEMENT_3D ( 'NONE', #28, #305, #228 ) ;
#70 = EDGE_CURVE ( 'NONE', #159, #116, #310, .T. ) ;
#71 = CARTESIAN_POINT ( 'NONE',  ( 2.409122123801762394E-13, 3.449999999999997513, 69.00000000000000000 ) ) ;
#72 = VERTEX_POINT ( 'NONE', #102 ) ;
#73 = CIRCLE ( 'NONE', #122, 3.450000000000005507 ) ;
#74 = LINE ( 'NONE', #57, #118 ) ;
#75 = PERSON_AND_ORGANIZATION ( #271, #89 ) ;
#76 = CARTESIAN_POINT ( 'NONE',  ( 7.660236198808498870E-15, 3.449999999999997513, 2.072969135645104544 ) ) ;
#77 = CARTESIAN_POINT ( 'NONE',  ( 2.409122123801762394E-13, 2.587085625091695889E-32, 69.00000000000000000 ) ) ;
#78 = PLANE ( 'NONE',  #197 ) ;
#79 = DIRECTION ( 'NONE',  ( -3.491481338843133355E-15, 1.224646799147353207E-16, -1.000000000000000000 ) ) ;
#80 = DIRECTION ( 'NONE',  ( -3.491481338843133355E-15, 1.224646799147353207E-16, -1.000000000000000000 ) ) ;
#81 = EDGE_LOOP ( 'NONE', ( #211, #180, #4, #112 ) ) ;
#82 = APPROVAL_DATE_TIME ( #189, #3 ) ;
#83 = CARTESIAN_POINT ( 'NONE',  ( 2.409122123801762394E-13, -8.450062914116737844E-15, 69.00000000000000000 ) ) ;
#84 = EDGE_LOOP ( 'NONE', ( #303, #236, #91, #232 ) ) ;
#85 = VECTOR ( 'NONE', #247, 1000.000000000000000 ) ;
#86 = ORIENTED_EDGE ( 'NONE', *, *, #104, .T. ) ;
#87 = EDGE_CURVE ( 'NONE', #221, #15, #74, .T. ) ;
#88 = ORIENTED_EDGE ( 'NONE', *, *, #104, .F. ) ;
#89 = ORGANIZATION ( 'UNSPECIFIED', 'UNSPECIFIED', '' ) ;
#90 = EDGE_CURVE ( 'NONE', #116, #159, #234, .T. ) ;
#91 = ORIENTED_EDGE ( 'NONE', *, *, #87, .T. ) ;
#92 = ADVANCED_FACE ( 'NONE', ( #307 ), #132, .T. ) ;
#93 = CARTESIAN_POINT ( 'NONE',  ( 4.225031457058364386E-16, -3.450000000000008171, -4.225031457058392982E-16 ) ) ;
#94 = APPROVAL_STATUS ( 'not_yet_approved' ) ;
#95 = PERSON_AND_ORGANIZATION ( #271, #89 ) ;
#96 = FACE_OUTER_BOUND ( 'NONE', #115, .T. ) ;
#97 = CIRCLE ( 'NONE', #69, 3.450000000000010836 ) ;
#98 = PRODUCT_RELATED_PRODUCT_CATEGORY ( 'detail', '', ( #270 ) ) ;
#99 = EDGE_LOOP ( 'NONE', ( #217, #66 ) ) ;
#100 = AXIS2_PLACEMENT_3D ( 'NONE', #252, #276, #335 ) ;
#101 = PERSON_AND_ORGANIZATION ( #271, #89 ) ;
#102 = CARTESIAN_POINT ( 'NONE',  ( 3.099423238341496316E-13, -3.450000000000013944, 69.00000000000000000 ) ) ;
#103 = CARTESIAN_POINT ( 'NONE',  ( 0.0000000000000000000, 0.0000000000000000000, 0.0000000000000000000 ) ) ;
#104 = EDGE_CURVE ( 'NONE', #159, #210, #250, .T. ) ;
#105 = PLANE ( 'NONE',  #245 ) ;
#106 = CARTESIAN_POINT ( 'NONE',  ( 0.0000000000000000000, 0.0000000000000000000, 0.0000000000000000000 ) ) ;
#107 = AXIS2_PLACEMENT_3D ( 'NONE', #106, #242, #195 ) ;
#108 = DIRECTION ( 'NONE',  ( 0.0000000000000000000, 1.000000000000000000, 0.0000000000000000000 ) ) ;
#109 = LINE ( 'NONE', #205, #114 ) ;
#110 = CARTESIAN_POINT ( 'NONE',  ( 7.237733053102659768E-15, -3.449999999999998401, 2.072969135645103655 ) ) ;
#111 = ADVANCED_FACE ( 'NONE', ( #256 ), #230, .T. ) ;
#112 = ORIENTED_EDGE ( 'NONE', *, *, #87, .F. ) ;
#113 = VERTEX_POINT ( 'NONE', #110 ) ;
#114 = VECTOR ( 'NONE', #309, 1000.000000000000000 ) ;
#115 = EDGE_LOOP ( 'NONE', ( #63, #258, #283, #88 ) ) ;
#116 = VERTEX_POINT ( 'NONE', #31 ) ;
#117 = ADVANCED_FACE ( 'NONE', ( #311 ), #78, .T. ) ;
#118 = VECTOR ( 'NONE', #1, 1000.000000000000000 ) ;
#119 = APPROVAL_ROLE ( '' ) ;
#120 = VERTEX_POINT ( 'NONE', #199 ) ;
#121 = DATE_AND_TIME ( #21, #45 ) ;
#122 = AXIS2_PLACEMENT_3D ( 'NONE', #201, #32, #60 ) ;
#123 = DIRECTION ( 'NONE',  ( 3.491481338843133355E-15, -1.224646799147353207E-16, 1.000000000000000000 ) ) ;
#124 = CARTESIAN_POINT ( 'NONE',  ( 1.244974758623450339E-13, -3.450000000000013944, 69.00000000000000000 ) ) ;
#125 = EDGE_LOOP ( 'NONE', ( #316, #154, #287 ) ) ;
#126 = ADVANCED_FACE ( 'NONE', ( #38 ), #282, .T. ) ;
#127 = DIRECTION ( 'NONE',  ( -3.491481338843133355E-15, 1.224646799147353207E-16, -1.000000000000000000 ) ) ;
#128 = CARTESIAN_POINT ( 'NONE',  ( 3.805714659339015231E-13, -1.334865011070615008E-14, 109.0000000000000000 ) ) ;
#129 = DIRECTION ( 'NONE',  ( -3.491481338843133355E-15, 1.224646799147353207E-16, -1.000000000000000000 ) ) ;
#130 = VECTOR ( 'NONE', #279, 1000.000000000000000 ) ;
#131 = CARTESIAN_POINT ( 'NONE',  ( 7.237733053102659768E-15, -3.449999999999998401, 2.072969135645103655 ) ) ;
#132 = CYLINDRICAL_SURFACE ( 'NONE', #48, 3.450000000000001510 ) ;
#133 = FACE_OUTER_BOUND ( 'NONE', #281, .T. ) ;
#134 = PERSON_AND_ORGANIZATION_ROLE ( 'creator' ) ;
#135 = DATE_TIME_ROLE ( 'creation_date' ) ;
#136 = ORIENTED_EDGE ( 'NONE', *, *, #163, .T. ) ;
#137 = CONICAL_SURFACE ( 'NONE', #183, 3.449999999999997957, 1.029744258676649871 ) ;
#138 = SHAPE_DEFINITION_REPRESENTATION ( #331, #223 ) ;
#139 = APPROVAL ( #198, 'UNSPECIFIED' ) ;
#140 = PERSON_AND_ORGANIZATION ( #271, #89 ) ;
#141 = CIRCLE ( 'NONE', #267, 3.449999999999997957 ) ;
#142 = COORDINATED_UNIVERSAL_TIME_OFFSET ( 1, 0, .AHEAD. ) ;
#143 = CARTESIAN_POINT ( 'NONE',  ( 3.805714659339015231E-13, 2.062169701160041895E-32, 109.0000000000000000 ) ) ;
#144 = DIRECTION ( 'NONE',  ( 0.0000000000000000000, 1.000000000000000000, 0.0000000000000000000 ) ) ;
#145 = DIRECTION ( 'NONE',  ( -3.491481338843133355E-15, 1.224646799147353207E-16, -1.000000000000000000 ) ) ;
#146 = CC_DESIGN_PERSON_AND_ORGANIZATION_ASSIGNMENT ( #95, #52, ( #264 ) ) ;
#147 = PERSON_AND_ORGANIZATION_ROLE ( 'design_owner' ) ;
#148 = DIRECTION ( 'NONE',  ( -3.491481338843133355E-15, 1.224646799147353207E-16, -1.000000000000000000 ) ) ;
#149 = AXIS2_PLACEMENT_3D ( 'NONE', #332, #79, #206 ) ;
#150 = DIRECTION ( 'NONE',  ( 4.275831445896958607E-31, 1.000000000000000000, 1.224646799147353207E-16 ) ) ;
#151 = CARTESIAN_POINT ( 'NONE',  ( 1.475161848834454214E-30, 3.450000000000008171, 4.225031457058378684E-16 ) ) ;
#152 = CARTESIAN_POINT ( 'NONE',  ( 3.805714659339015231E-13, 2.749999999999997335, 109.0000000000000000 ) ) ;
#153 = DIRECTION ( 'NONE',  ( -3.491481338843133355E-15, 1.224646799147353207E-16, -1.000000000000000000 ) ) ;
#154 = ORIENTED_EDGE ( 'NONE', *, *, #260, .T. ) ;
#155 =( GEOMETRIC_REPRESENTATION_CONTEXT ( 3 ) GLOBAL_UNCERTAINTY_ASSIGNED_CONTEXT ( ( #237 ) ) GLOBAL_UNIT_ASSIGNED_CONTEXT ( ( #227, #196, #246 ) ) REPRESENTATION_CONTEXT ( 'NONE', 'WORKASPACE' ) );
#156 = CARTESIAN_POINT ( 'NONE',  ( 3.805714659339015231E-13, 2.749999999999997335, 109.0000000000000000 ) ) ;
#157 = ADVANCED_FACE ( 'NONE', ( #175 ), #224, .T. ) ;
#158 = CC_DESIGN_DATE_AND_TIME_ASSIGNMENT ( #65, #135, ( #314 ) ) ;
#159 = VERTEX_POINT ( 'NONE', #156 ) ;
#160 = EDGE_LOOP ( 'NONE', ( #37, #284, #136 ) ) ;
#161 = ADVANCED_FACE ( 'NONE', ( #133 ), #61, .T. ) ;
#162 = APPROVAL_PERSON_ORGANIZATION ( #101, #139, #334 ) ;
#163 = EDGE_CURVE ( 'NONE', #113, #15, #141, .T. ) ;
#164 = AXIS2_PLACEMENT_3D ( 'NONE', #35, #275, #150 ) ;
#165 = AXIS2_PLACEMENT_3D ( 'NONE', #225, #145, #244 ) ;
#166 = AXIS2_PLACEMENT_3D ( 'NONE', #220, #289, #299 ) ;
#167 = DIRECTION ( 'NONE',  ( 3.491481338843133355E-15, -1.224646799147353207E-16, 1.000000000000000000 ) ) ;
#168 = CARTESIAN_POINT ( 'NONE',  ( 7.237733053102661346E-15, -2.538655016699032079E-16, 2.072969135645104100 ) ) ;
#169 = LINE ( 'NONE', #93, #8 ) ;
#170 = PLANE ( 'NONE',  #188 ) ;
#171 = CLOSED_SHELL ( 'NONE', ( #47, #161, #286, #111, #126, #59 ) ) ;
#172 = CARTESIAN_POINT ( 'NONE',  ( 2.409122123801762394E-13, 3.449999999999997513, 69.00000000000000000 ) ) ;
#173 = DIRECTION ( 'NONE',  ( 4.465924508724027921E-31, 1.000000000000000000, 1.257045997084643597E-16 ) ) ;
#174 = CARTESIAN_POINT ( 'NONE',  ( 3.809082438036670637E-13, -2.750000000000023981, 109.0000000000000000 ) ) ;
#175 = FACE_OUTER_BOUND ( 'NONE', #125, .T. ) ;
#176 = DIRECTION ( 'NONE',  ( 3.491481338843133355E-15, -1.224646799147353207E-16, 1.000000000000000000 ) ) ;
#177 = DIRECTION ( 'NONE',  ( -3.491481338843133355E-15, 1.224646799147353207E-16, -1.000000000000000000 ) ) ;
#178 = DIRECTION ( 'NONE',  ( -3.491481338843133355E-15, 1.224646799147353207E-16, -1.000000000000000000 ) ) ;
#179 = CARTESIAN_POINT ( 'NONE',  ( 3.805714659339015231E-13, -1.334865011070615008E-14, 109.0000000000000000 ) ) ;
#180 = ORIENTED_EDGE ( 'NONE', *, *, #185, .T. ) ;
#181 = CC_DESIGN_APPROVAL ( #3, ( #264 ) ) ;
#182 = EDGE_LOOP ( 'NONE', ( #194, #41, #86, #64 ) ) ;
#183 = AXIS2_PLACEMENT_3D ( 'NONE', #168, #123, #324 ) ;
#184 = CALENDAR_DATE ( 2021, 2, 9 ) ;
#185 = EDGE_CURVE ( 'NONE', #219, #113, #109, .T. ) ;
#186 = EDGE_LOOP ( 'NONE', ( #261, #259, #313, #326 ) ) ;
#187 = ORIENTED_EDGE ( 'NONE', *, *, #327, .T. ) ;
#188 = AXIS2_PLACEMENT_3D ( 'NONE', #143, #56, #333 ) ;
#189 = DATE_AND_TIME ( #322, #26 ) ;
#190 = EDGE_CURVE ( 'NONE', #120, #113, #273, .T. ) ;
#191 = ORIENTED_EDGE ( 'NONE', *, *, #215, .F. ) ;
#192 = EDGE_LOOP ( 'NONE', ( #191, #14 ) ) ;
#193 = DIRECTION ( 'NONE',  ( -3.491481338843133355E-15, 1.224646799147353207E-16, -1.000000000000000000 ) ) ;
#194 = ORIENTED_EDGE ( 'NONE', *, *, #43, .F. ) ;
#195 = DIRECTION ( 'NONE',  ( 1.000000000000000000, 0.0000000000000000000, 0.0000000000000000000 ) ) ;
#196 =( NAMED_UNIT ( * ) PLANE_ANGLE_UNIT ( ) SI_UNIT ( $, .RADIAN. ) );
#197 = AXIS2_PLACEMENT_3D ( 'NONE', #77, #176, #55 ) ;
#198 = APPROVAL_STATUS ( 'not_yet_approved' ) ;
#199 = CARTESIAN_POINT ( 'NONE',  ( 0.0000000000000000000, 0.0000000000000000000, 0.0000000000000000000 ) ) ;
#200 = COORDINATED_UNIVERSAL_TIME_OFFSET ( 1, 0, .AHEAD. ) ;
#201 = CARTESIAN_POINT ( 'NONE',  ( 2.409122123801762394E-13, -8.450062914116737844E-15, 69.00000000000000000 ) ) ;
#202 = DIRECTION ( 'NONE',  ( 0.0000000000000000000, 1.000000000000000000, 0.0000000000000000000 ) ) ;
#203 = LOCAL_TIME ( 15, 22, 47.00000000000000000, #7 ) ;
#204 = CARTESIAN_POINT ( 'NONE',  ( 2.409122123801762394E-13, 2.587085625091695889E-32, 69.00000000000000000 ) ) ;
#205 = CARTESIAN_POINT ( 'NONE',  ( 4.225031457058356005E-16, -3.450000000000001510, -4.225031457058385094E-16 ) ) ;
#206 = DIRECTION ( 'NONE',  ( 0.0000000000000000000, 1.000000000000000000, 0.0000000000000000000 ) ) ;
#207 = APPROVAL_STATUS ( 'not_yet_approved' ) ;
#208 = EDGE_CURVE ( 'NONE', #15, #113, #315, .T. ) ;
#209 = MECHANICAL_CONTEXT ( 'NONE', #214, 'mechanical' ) ;
#210 = VERTEX_POINT ( 'NONE', #249 ) ;
#211 = ORIENTED_EDGE ( 'NONE', *, *, #215, .T. ) ;
#212 = EDGE_LOOP ( 'NONE', ( #27, #12 ) ) ;
#213 = MANIFOLD_SOLID_BREP ( 'Corps-Déplacer/Copier1[1]', #171 ) ;
#214 = APPLICATION_CONTEXT ( 'configuration controlled 3d designs of mechanical parts and assemblies' ) ;
#215 = EDGE_CURVE ( 'NONE', #221, #219, #30, .T. ) ;
#216 = CC_DESIGN_PERSON_AND_ORGANIZATION_ASSIGNMENT ( #75, #50, ( #312 ) ) ;
#217 = ORIENTED_EDGE ( 'NONE', *, *, #70, .F. ) ;
#218 = EDGE_CURVE ( 'NONE', #210, #330, #278, .T. ) ;
#219 = VERTEX_POINT ( 'NONE', #124 ) ;
#220 = CARTESIAN_POINT ( 'NONE',  ( 0.0000000000000000000, 0.0000000000000000000, 0.0000000000000000000 ) ) ;
#221 = VERTEX_POINT ( 'NONE', #172 ) ;
#222 = CC_DESIGN_SECURITY_CLASSIFICATION ( #264, ( #312 ) ) ;
#223 = ADVANCED_BREP_SHAPE_REPRESENTATION ( '41512', ( #213, #319, #107 ), #155 ) ;
#224 = CONICAL_SURFACE ( 'NONE', #100, 3.449999999999997957, 1.029744258676649871 ) ;
#225 = CARTESIAN_POINT ( 'NONE',  ( 7.237733053102661346E-15, -2.538655016699032079E-16, 2.072969135645104100 ) ) ;
#226 = CALENDAR_DATE ( 2021, 2, 9 ) ;
#227 =( LENGTH_UNIT ( ) NAMED_UNIT ( * ) SI_UNIT ( .MILLI., .METRE. ) );
#228 = DIRECTION ( 'NONE',  ( 0.0000000000000000000, 1.000000000000000000, 0.0000000000000000000 ) ) ;
#229 = APPROVAL_ROLE ( '' ) ;
#230 = CYLINDRICAL_SURFACE ( 'NONE', #164, 3.450000000000008171 ) ;
#231 = AXIS2_PLACEMENT_3D ( 'NONE', #5, #148, #34 ) ;
#232 = ORIENTED_EDGE ( 'NONE', *, *, #163, .F. ) ;
#233 = CC_DESIGN_APPROVAL ( #23, ( #312 ) ) ;
#234 = CIRCLE ( 'NONE', #149, 2.750000000000010658 ) ;
#235 = VERTEX_POINT ( 'NONE', #255 ) ;
#236 = ORIENTED_EDGE ( 'NONE', *, *, #36, .T. ) ;
#237 = UNCERTAINTY_MEASURE_WITH_UNIT (LENGTH_MEASURE( 1.000000000000000082E-05 ), #227, 'distance_accuracy_value', 'NONE');
#238 = ORIENTED_EDGE ( 'NONE', *, *, #68, .F. ) ;
#239 = PERSON_AND_ORGANIZATION ( #271, #89 ) ;
#240 = VECTOR ( 'NONE', #67, 999.9999999999998863 ) ;
#241 = CARTESIAN_POINT ( 'NONE',  ( 3.805714659339015231E-13, -1.334865011070615008E-14, 109.0000000000000000 ) ) ;
#242 = DIRECTION ( 'NONE',  ( 0.0000000000000000000, 0.0000000000000000000, 1.000000000000000000 ) ) ;
#243 = CARTESIAN_POINT ( 'NONE',  ( 2.409122123801762394E-13, -8.450062914116737844E-15, 69.00000000000000000 ) ) ;
#244 = DIRECTION ( 'NONE',  ( 4.465924508724027921E-31, 1.000000000000000000, 1.257045997084643597E-16 ) ) ;
#245 = AXIS2_PLACEMENT_3D ( 'NONE', #204, #167, #296 ) ;
#246 =( NAMED_UNIT ( * ) SI_UNIT ( $, .STERADIAN. ) SOLID_ANGLE_UNIT ( ) );
#247 = DIRECTION ( 'NONE',  ( -2.468850131082300053E-15, 0.7071067811865375807, -0.7071067811865574537 ) ) ;
#248 = AXIS2_PLACEMENT_3D ( 'NONE', #243, #127, #108 ) ;
#249 = CARTESIAN_POINT ( 'NONE',  ( 3.781274289967112982E-13, 3.449999999999997513, 108.2999999999999829 ) ) ;
#250 = LINE ( 'NONE', #152, #85 ) ;
#251 = CC_DESIGN_PERSON_AND_ORGANIZATION_ASSIGNMENT ( #51, #147, ( #270 ) ) ;
#252 = CARTESIAN_POINT ( 'NONE',  ( 7.237733053102661346E-15, -2.538655016699032079E-16, 2.072969135645104100 ) ) ;
#253 = DIRECTION ( 'NONE',  ( -3.491481338843133355E-15, 1.224646799147353207E-16, -1.000000000000000000 ) ) ;
#254 = ORIENTED_EDGE ( 'NONE', *, *, #295, .T. ) ;
#255 = CARTESIAN_POINT ( 'NONE',  ( 3.099423238341495306E-13, -3.450000000000024158, 108.2999999999999829 ) ) ;
#256 = FACE_OUTER_BOUND ( 'NONE', #186, .T. ) ;
#257 = AXIS2_PLACEMENT_3D ( 'NONE', #128, #193, #202 ) ;
#258 = ORIENTED_EDGE ( 'NONE', *, *, #43, .T. ) ;
#259 = ORIENTED_EDGE ( 'NONE', *, *, #277, .T. ) ;
#260 = EDGE_CURVE ( 'NONE', #120, #15, #328, .T. ) ;
#261 = ORIENTED_EDGE ( 'NONE', *, *, #295, .F. ) ;
#262 = AXIS2_PLACEMENT_3D ( 'NONE', #269, #129, #54 ) ;
#263 = FACE_OUTER_BOUND ( 'NONE', #160, .T. ) ;
#264 = SECURITY_CLASSIFICATION ( '', '', #268 ) ;
#265 = FACE_OUTER_BOUND ( 'NONE', #84, .T. ) ;
#266 = CC_DESIGN_PERSON_AND_ORGANIZATION_ASSIGNMENT ( #302, #321, ( #312 ) ) ;
#267 = AXIS2_PLACEMENT_3D ( 'NONE', #301, #178, #173 ) ;
#268 = SECURITY_CLASSIFICATION_LEVEL ( 'unclassified' ) ;
#269 = CARTESIAN_POINT ( 'NONE',  ( 2.409122123801762394E-13, -8.450062914116737844E-15, 69.00000000000000000 ) ) ;
#270 = PRODUCT ( '41512', '41512', '', ( #209 ) ) ;
#271 = PERSON ( 'UNSPECIFIED', 'UNSPECIFIED', 'UNSPECIFIED', ('UNSPECIFIED'), ('UNSPECIFIED'), ('UNSPECIFIED') ) ;
#272 = DIRECTION ( 'NONE',  ( -3.491481338843133355E-15, 1.224646799147353207E-16, -1.000000000000000000 ) ) ;
#273 = LINE ( 'NONE', #131, #130 ) ;
#274 = DIRECTION ( 'NONE',  ( -3.491481338843133355E-15, 1.224646799147353207E-16, -1.000000000000000000 ) ) ;
#275 = DIRECTION ( 'NONE',  ( -3.491481338843133355E-15, 1.224646799147353207E-16, -1.000000000000000000 ) ) ;
#276 = DIRECTION ( 'NONE',  ( 3.491481338843133355E-15, -1.224646799147353207E-16, 1.000000000000000000 ) ) ;
#277 = EDGE_CURVE ( 'NONE', #235, #210, #97, .T. ) ;
#278 = LINE ( 'NONE', #151, #292 ) ;
#279 = DIRECTION ( 'NONE',  ( 1.798245827342159528E-15, -0.8571673007021100021, 0.5150380749100580413 ) ) ;
#280 = DIRECTION ( 'NONE',  ( 0.0000000000000000000, 1.000000000000000000, 0.0000000000000000000 ) ) ;
#281 = EDGE_LOOP ( 'NONE', ( #187, #254, #238, #294 ) ) ;
#282 = CONICAL_SURFACE ( 'NONE', #44, 2.750000000000010658, 0.7853981633974340681 ) ;
#283 = ORIENTED_EDGE ( 'NONE', *, *, #327, .F. ) ;
#284 = ORIENTED_EDGE ( 'NONE', *, *, #190, .T. ) ;
#285 = CYLINDRICAL_SURFACE ( 'NONE', #166, 3.450000000000001510 ) ;
#286 = ADVANCED_FACE ( 'NONE', ( #336 ), #105, .F. ) ;
#287 = ORIENTED_EDGE ( 'NONE', *, *, #208, .T. ) ;
#288 = CIRCLE ( 'NONE', #6, 3.450000000000005507 ) ;
#289 = DIRECTION ( 'NONE',  ( -3.491481338843133355E-15, 1.224646799147353207E-16, -1.000000000000000000 ) ) ;
#290 = COORDINATED_UNIVERSAL_TIME_OFFSET ( 1, 0, .AHEAD. ) ;
#291 = DESIGN_CONTEXT ( 'detailed design', #42, 'design' ) ;
#292 = VECTOR ( 'NONE', #177, 1000.000000000000000 ) ;
#293 = DATE_AND_TIME ( #226, #10 ) ;
#294 = ORIENTED_EDGE ( 'NONE', *, *, #218, .F. ) ;
#295 = EDGE_CURVE ( 'NONE', #235, #72, #169, .T. ) ;
#296 = DIRECTION ( 'NONE',  ( -4.275831445896958607E-31, -1.000000000000000000, -1.224646799147353207E-16 ) ) ;
#297 = APPROVAL_DATE_TIME ( #293, #23 ) ;
#298 = FACE_OUTER_BOUND ( 'NONE', #99, .T. ) ;
#299 = DIRECTION ( 'NONE',  ( 4.275831445896958607E-31, 1.000000000000000000, 1.224646799147353207E-16 ) ) ;
#300 = EDGE_CURVE ( 'NONE', #72, #330, #288, .T. ) ;
#301 = CARTESIAN_POINT ( 'NONE',  ( 7.237733053102661346E-15, -2.538655016699032079E-16, 2.072969135645104100 ) ) ;
#302 = PERSON_AND_ORGANIZATION ( #271, #89 ) ;
#303 = ORIENTED_EDGE ( 'NONE', *, *, #185, .F. ) ;
#304 = DIRECTION ( 'NONE',  ( -3.491481338843133355E-15, 1.224646799147353207E-16, -1.000000000000000000 ) ) ;
#305 = DIRECTION ( 'NONE',  ( -3.491481338843133355E-15, 1.224646799147353207E-16, -1.000000000000000000 ) ) ;
#306 = APPLICATION_PROTOCOL_DEFINITION ( 'international standard', 'config_control_design', 1994, #214 ) ;
#307 = FACE_OUTER_BOUND ( 'NONE', #81, .T. ) ;
#308 = ADVANCED_FACE ( 'NONE', ( #265 ), #285, .T. ) ;
#309 = DIRECTION ( 'NONE',  ( -3.491481338843133355E-15, 1.224646799147353207E-16, -1.000000000000000000 ) ) ;
#310 = CIRCLE ( 'NONE', #257, 2.750000000000010658 ) ;
#311 = FACE_OUTER_BOUND ( 'NONE', #192, .T. ) ;
#312 = PRODUCT_DEFINITION_FORMATION_WITH_SPECIFIED_SOURCE ( 'ANY', '', #270, .NOT_KNOWN. ) ;
#313 = ORIENTED_EDGE ( 'NONE', *, *, #218, .T. ) ;
#314 = PRODUCT_DEFINITION ( 'UNKNOWN', '', #312, #291 ) ;
#315 = CIRCLE ( 'NONE', #165, 3.449999999999997957 ) ;
#316 = ORIENTED_EDGE ( 'NONE', *, *, #190, .F. ) ;
#317 = PERSON_AND_ORGANIZATION ( #271, #89 ) ;
#318 = CC_DESIGN_DATE_AND_TIME_ASSIGNMENT ( #46, #16, ( #264 ) ) ;
#319 = MANIFOLD_SOLID_BREP ( 'Corps-Déplacer/Copier1[2]', #20 ) ;
#320 = CC_DESIGN_PERSON_AND_ORGANIZATION_ASSIGNMENT ( #239, #134, ( #314 ) ) ;
#321 = PERSON_AND_ORGANIZATION_ROLE ( 'creator' ) ;
#322 = CALENDAR_DATE ( 2021, 2, 9 ) ;
#323 = AXIS2_PLACEMENT_3D ( 'NONE', #337, #272, #144 ) ;
#324 = DIRECTION ( 'NONE',  ( -4.465924508724027921E-31, -1.000000000000000000, -1.257045997084643597E-16 ) ) ;
#325 = VECTOR ( 'NONE', #33, 1000.000000000000114 ) ;
#326 = ORIENTED_EDGE ( 'NONE', *, *, #300, .F. ) ;
#327 = EDGE_CURVE ( 'NONE', #210, #235, #17, .T. ) ;
#328 = LINE ( 'NONE', #24, #325 ) ;
#329 = APPROVAL_PERSON_ORGANIZATION ( #317, #23, #229 ) ;
#330 = VERTEX_POINT ( 'NONE', #71 ) ;
#331 = PRODUCT_DEFINITION_SHAPE ( 'NONE', 'NONE',  #314 ) ;
#332 = CARTESIAN_POINT ( 'NONE',  ( 3.805714659339015231E-13, -1.334865011070615008E-14, 109.0000000000000000 ) ) ;
#333 = DIRECTION ( 'NONE',  ( 4.275831445896958607E-31, 1.000000000000000000, 1.224646799147353207E-16 ) ) ;
#334 = APPROVAL_ROLE ( '' ) ;
#335 = DIRECTION ( 'NONE',  ( -4.465924508724027921E-31, -1.000000000000000000, -1.257045997084643597E-16 ) ) ;
#336 = FACE_OUTER_BOUND ( 'NONE', #212, .T. ) ;
#337 = CARTESIAN_POINT ( 'NONE',  ( 3.781274289967112982E-13, -1.326292483476583264E-14, 108.2999999999999829 ) ) ;
ENDSEC;
END-ISO-10303-21;
