ISO-10303-21;
HEADER;
FILE_DESCRIPTION (( 'STEP AP203' ),
    '1' );
FILE_NAME ('41511.step',
    '2021-09-02T13:22:47',
    ( '' ),
    ( '' ),
    'SwSTEP 2.0',
    'SolidWorks 2019',
    '' );
FILE_SCHEMA (( 'CONFIG_CONTROL_DESIGN' ));
ENDSEC;

DATA;
#1 = CYLINDRICAL_SURFACE ( 'NONE', #230, 1.600000000000000755 ) ;
#2 = CC_DESIGN_PERSON_AND_ORGANIZATION_ASSIGNMENT ( #132, #235, ( #190 ) ) ;
#3 = ORIENTED_EDGE ( 'NONE', *, *, #204, .T. ) ;
#4 = EDGE_LOOP ( 'NONE', ( #329, #272, #70, #214 ) ) ;
#5 = EDGE_LOOP ( 'NONE', ( #122, #203, #74 ) ) ;
#6 = LOCAL_TIME ( 15, 22, 47.00000000000000000, #244 ) ;
#7 = LOCAL_TIME ( 15, 22, 47.00000000000000000, #121 ) ;
#8 = CARTESIAN_POINT ( 'NONE',  ( 1.256933281983528008E-13, -4.408728476930470856E-15, 36.00000000000000000 ) ) ;
#9 = AXIS2_PLACEMENT_3D ( 'NONE', #222, #299, #279 ) ;
#10 = CC_DESIGN_SECURITY_CLASSIFICATION ( #250, ( #190 ) ) ;
#11 = CYLINDRICAL_SURFACE ( 'NONE', #187, 1.599999999999996758 ) ;
#12 = EDGE_CURVE ( 'NONE', #243, #22, #321, .T. ) ;
#13 = FACE_OUTER_BOUND ( 'NONE', #257, .T. ) ;
#14 = CARTESIAN_POINT ( 'NONE',  ( 1.256933281983528008E-13, 1.599999999999994760, 36.00000000000000000 ) ) ;
#15 = APPROVAL_DATE_TIME ( #140, #157 ) ;
#16 = DESIGN_CONTEXT ( 'detailed design', #225, 'design' ) ;
#17 = CC_DESIGN_APPROVAL ( #157, ( #250 ) ) ;
#18 = PERSON ( 'UNSPECIFIED', 'UNSPECIFIED', 'UNSPECIFIED', ('UNSPECIFIED'), ('UNSPECIFIED'), ('UNSPECIFIED') ) ;
#19 = EDGE_LOOP ( 'NONE', ( #205, #86, #41, #131 ) ) ;
#20 = APPROVAL_STATUS ( 'not_yet_approved' ) ;
#21 = VECTOR ( 'NONE', #180, 999.9999999999998863 ) ;
#22 = VERTEX_POINT ( 'NONE', #291 ) ;
#23 = CALENDAR_DATE ( 2021, 2, 9 ) ;
#24 = CARTESIAN_POINT ( 'NONE',  ( 2.269462870248037060E-13, 1.199999999999994404, 65.00000000000000000 ) ) ;
#25 = APPROVAL ( #228, 'UNSPECIFIED' ) ;
#26 = APPROVAL_STATUS ( 'not_yet_approved' ) ;
#27 = FACE_OUTER_BOUND ( 'NONE', #5, .T. ) ;
#28 = APPROVAL_ROLE ( '' ) ;
#29 = DATE_AND_TIME ( #150, #7 ) ;
#30 = AXIS2_PLACEMENT_3D ( 'NONE', #85, #182, #317 ) ;
#31 = DIRECTION ( 'NONE',  ( 4.814824860968105397E-31, 1.000000000000000000, 1.355252715606884980E-16 ) ) ;
#32 = CALENDAR_DATE ( 2021, 2, 9 ) ;
#33 = DATE_AND_TIME ( #93, #168 ) ;
#34 = ORIENTED_EDGE ( 'NONE', *, *, #184, .F. ) ;
#35 = ADVANCED_FACE ( 'NONE', ( #13 ), #37, .T. ) ;
#36 = DIRECTION ( 'NONE',  ( -3.491481338843133355E-15, 1.224646799147353207E-16, -1.000000000000000000 ) ) ;
#37 = CONICAL_SURFACE ( 'NONE', #72, 1.200000000000002398, 0.7853981633974512766 ) ;
#38 = CARTESIAN_POINT ( 'NONE',  ( 0.0000000000000000000, 0.0000000000000000000, 0.0000000000000000000 ) ) ;
#39 = EDGE_LOOP ( 'NONE', ( #163, #119 ) ) ;
#40 = EDGE_CURVE ( 'NONE', #217, #290, #224, .T. ) ;
#41 = ORIENTED_EDGE ( 'NONE', *, *, #312, .F. ) ;
#42 = CIRCLE ( 'NONE', #237, 1.599999999999998979 ) ;
#43 = DIRECTION ( 'NONE',  ( 0.0000000000000000000, 1.000000000000000000, 0.0000000000000000000 ) ) ;
#44 = ORIENTED_EDGE ( 'NONE', *, *, #87, .T. ) ;
#45 = APPROVAL ( #26, 'UNSPECIFIED' ) ;
#46 = LOCAL_TIME ( 15, 22, 47.00000000000000000, #310 ) ;
#47 = PERSON_AND_ORGANIZATION ( #18, #266 ) ;
#48 = ORIENTED_EDGE ( 'NONE', *, *, #312, .T. ) ;
#49 = APPROVAL_ROLE ( '' ) ;
#50 = CARTESIAN_POINT ( 'NONE',  ( 3.356629821728760973E-15, -1.599999999999994982, 0.9613769904441036296 ) ) ;
#51 = AXIS2_PLACEMENT_3D ( 'NONE', #77, #68, #306 ) ;
#52 = DIRECTION ( 'NONE',  ( -3.491481338843133355E-15, 1.224646799147353207E-16, -1.000000000000000000 ) ) ;
#53 = CARTESIAN_POINT ( 'NONE',  ( 1.758174548316731499E-13, -1.600000000000003419, 36.00000000000000000 ) ) ;
#54 = CARTESIAN_POINT ( 'NONE',  ( 3.356629821728761762E-15, -1.177347254121287239E-16, 0.9613769904441038516 ) ) ;
#55 = PRODUCT_DEFINITION_SHAPE ( 'NONE', 'NONE',  #308 ) ;
#56 = EDGE_CURVE ( 'NONE', #183, #111, #208, .T. ) ;
#57 = DATE_AND_TIME ( #311, #98 ) ;
#58 = AXIS2_PLACEMENT_3D ( 'NONE', #159, #36, #116 ) ;
#59 = DIRECTION ( 'NONE',  ( 0.0000000000000000000, 1.000000000000000000, 0.0000000000000000000 ) ) ;
#60 = DIRECTION ( 'NONE',  ( -3.491481338843133355E-15, 1.224646799147353207E-16, -1.000000000000000000 ) ) ;
#61 = FACE_OUTER_BOUND ( 'NONE', #99, .T. ) ;
#62 = CIRCLE ( 'NONE', #245, 1.599999999999998979 ) ;
#63 = CARTESIAN_POINT ( 'NONE',  ( 3.356629821728761762E-15, -1.177347254121287239E-16, 0.9613769904441038516 ) ) ;
#64 = CARTESIAN_POINT ( 'NONE',  ( 1.256933281983528008E-13, 1.199807826129478833E-32, 36.00000000000000000 ) ) ;
#65 = CARTESIAN_POINT ( 'NONE',  ( 2.269462870248037060E-13, 1.199999999999994404, 65.00000000000000000 ) ) ;
#66 = PLANE ( 'NONE',  #275 ) ;
#67 = DIRECTION ( 'NONE',  ( -3.491481338843133355E-15, 1.224646799147353207E-16, -1.000000000000000000 ) ) ;
#68 = DIRECTION ( 'NONE',  ( -3.491481338843133355E-15, 1.224646799147353207E-16, -1.000000000000000000 ) ) ;
#69 = EDGE_CURVE ( 'NONE', #188, #324, #143, .T. ) ;
#70 = ORIENTED_EDGE ( 'NONE', *, *, #162, .T. ) ;
#71 = CC_DESIGN_APPROVAL ( #25, ( #190 ) ) ;
#72 = AXIS2_PLACEMENT_3D ( 'NONE', #314, #186, #234 ) ;
#73 = ADVANCED_FACE ( 'NONE', ( #165 ), #155, .T. ) ;
#74 = ORIENTED_EDGE ( 'NONE', *, *, #255, .T. ) ;
#75 = ORIENTED_EDGE ( 'NONE', *, *, #104, .T. ) ;
#76 = CARTESIAN_POINT ( 'NONE',  ( 1.758174548316730742E-13, -1.600000000000010303, 64.60000000000000853 ) ) ;
#77 = CARTESIAN_POINT ( 'NONE',  ( 2.269462870248037060E-13, -7.960204194457797252E-15, 65.00000000000000000 ) ) ;
#78 = CARTESIAN_POINT ( 'NONE',  ( 0.0000000000000000000, 0.0000000000000000000, 0.0000000000000000000 ) ) ;
#79 = PERSON_AND_ORGANIZATION ( #18, #266 ) ;
#80 = CARTESIAN_POINT ( 'NONE',  ( 1.256933281983528008E-13, -4.408728476930470856E-15, 36.00000000000000000 ) ) ;
#81 =( GEOMETRIC_REPRESENTATION_CONTEXT ( 3 ) GLOBAL_UNCERTAINTY_ASSIGNED_CONTEXT ( ( #141 ) ) GLOBAL_UNIT_ASSIGNED_CONTEXT ( ( #307, #146, #101 ) ) REPRESENTATION_CONTEXT ( 'NONE', 'WORKASPACE' ) );
#82 = DIRECTION ( 'NONE',  ( -3.491481338843133355E-15, 1.224646799147353207E-16, -1.000000000000000000 ) ) ;
#83 = DIRECTION ( 'NONE',  ( -3.491481338843133355E-15, 1.224646799147353207E-16, -1.000000000000000000 ) ) ;
#84 = VECTOR ( 'NONE', #246, 1000.000000000000114 ) ;
#85 = CARTESIAN_POINT ( 'NONE',  ( 2.269462870248037060E-13, -7.960204194457797252E-15, 65.00000000000000000 ) ) ;
#86 = ORIENTED_EDGE ( 'NONE', *, *, #117, .T. ) ;
#87 = EDGE_CURVE ( 'NONE', #167, #148, #42, .T. ) ;
#88 = DIRECTION ( 'NONE',  ( 4.275831445896958607E-31, 1.000000000000000000, 1.224646799147353207E-16 ) ) ;
#89 = ADVANCED_FACE ( 'NONE', ( #61 ), #11, .T. ) ;
#90 = FACE_OUTER_BOUND ( 'NONE', #4, .T. ) ;
#91 = CIRCLE ( 'NONE', #30, 1.200000000000002398 ) ;
#92 = ADVANCED_FACE ( 'NONE', ( #90 ), #284, .T. ) ;
#93 = CALENDAR_DATE ( 2021, 2, 9 ) ;
#94 = SHAPE_DEFINITION_REPRESENTATION ( #55, #289 ) ;
#95 = MANIFOLD_SOLID_BREP ( 'Corps-Déplacer/Copier1[1]', #285 ) ;
#96 = DIRECTION ( 'NONE',  ( 4.275831445896958607E-31, 1.000000000000000000, 1.224646799147353207E-16 ) ) ;
#97 = CLOSED_SHELL ( 'NONE', ( #89, #294, #139, #73, #330 ) ) ;
#98 = LOCAL_TIME ( 15, 22, 47.00000000000000000, #106 ) ;
#99 = EDGE_LOOP ( 'NONE', ( #315, #201, #265, #271 ) ) ;
#100 = CARTESIAN_POINT ( 'NONE',  ( 1.256933281983528008E-13, 1.599999999999994760, 36.00000000000000000 ) ) ;
#101 =( NAMED_UNIT ( * ) SI_UNIT ( $, .STERADIAN. ) SOLID_ANGLE_UNIT ( ) );
#102 = VECTOR ( 'NONE', #136, 1000.000000000000000 ) ;
#103 = PERSON_AND_ORGANIZATION ( #18, #266 ) ;
#104 = EDGE_CURVE ( 'NONE', #241, #111, #261, .T. ) ;
#105 = PERSON_AND_ORGANIZATION ( #18, #266 ) ;
#106 = COORDINATED_UNIVERSAL_TIME_OFFSET ( 1, 0, .AHEAD. ) ;
#107 = APPLICATION_PROTOCOL_DEFINITION ( 'international standard', 'config_control_design', 1994, #292 ) ;
#108 = VECTOR ( 'NONE', #223, 1000.000000000000114 ) ;
#109 = CARTESIAN_POINT ( 'NONE',  ( 1.256933281983528008E-13, -4.408728476930470856E-15, 36.00000000000000000 ) ) ;
#110 = ADVANCED_FACE ( 'NONE', ( #287 ), #66, .F. ) ;
#111 = VERTEX_POINT ( 'NONE', #319 ) ;
#112 = DIRECTION ( 'NONE',  ( -3.491481338843133355E-15, 1.224646799147353207E-16, -1.000000000000000000 ) ) ;
#113 = CIRCLE ( 'NONE', #301, 1.599999999999994760 ) ;
#114 = DIRECTION ( 'NONE',  ( 4.275831445896958607E-31, 1.000000000000000000, 1.224646799147353207E-16 ) ) ;
#115 = CC_DESIGN_DATE_AND_TIME_ASSIGNMENT ( #33, #130, ( #308 ) ) ;
#116 = DIRECTION ( 'NONE',  ( 0.0000000000000000000, 1.000000000000000000, 0.0000000000000000000 ) ) ;
#117 = EDGE_CURVE ( 'NONE', #217, #167, #125, .T. ) ;
#118 = ORIENTED_EDGE ( 'NONE', *, *, #281, .T. ) ;
#119 = ORIENTED_EDGE ( 'NONE', *, *, #219, .F. ) ;
#120 = LINE ( 'NONE', #24, #108 ) ;
#121 = COORDINATED_UNIVERSAL_TIME_OFFSET ( 1, 0, .AHEAD. ) ;
#122 = ORIENTED_EDGE ( 'NONE', *, *, #104, .F. ) ;
#123 = FACE_OUTER_BOUND ( 'NONE', #282, .T. ) ;
#124 = DIRECTION ( 'NONE',  ( 1.000000000000000000, 0.0000000000000000000, 0.0000000000000000000 ) ) ;
#125 = LINE ( 'NONE', #267, #198 ) ;
#126 = CC_DESIGN_PERSON_AND_ORGANIZATION_ASSIGNMENT ( #258, #305, ( #274 ) ) ;
#127 = DIRECTION ( 'NONE',  ( 1.798245827342160317E-15, -0.8571673007021098911, 0.5150380749100582634 ) ) ;
#128 = CC_DESIGN_APPROVAL ( #45, ( #308 ) ) ;
#129 = ORIENTED_EDGE ( 'NONE', *, *, #255, .F. ) ;
#130 = DATE_TIME_ROLE ( 'creation_date' ) ;
#131 = ORIENTED_EDGE ( 'NONE', *, *, #162, .F. ) ;
#132 = PERSON_AND_ORGANIZATION ( #18, #266 ) ;
#133 = AXIS2_PLACEMENT_3D ( 'NONE', #135, #67, #43 ) ;
#134 = CARTESIAN_POINT ( 'NONE',  ( 0.0000000000000000000, 0.0000000000000000000, 0.0000000000000000000 ) ) ;
#135 = CARTESIAN_POINT ( 'NONE',  ( 2.255496944892664526E-13, -7.911218322491902246E-15, 64.60000000000000853 ) ) ;
#136 = DIRECTION ( 'NONE',  ( -3.491481338843133355E-15, 1.224646799147353207E-16, -1.000000000000000000 ) ) ;
#137 = CC_DESIGN_PERSON_AND_ORGANIZATION_ASSIGNMENT ( #197, #247, ( #190 ) ) ;
#138 = CARTESIAN_POINT ( 'NONE',  ( 1.959434878635754630E-16, -1.599999999999996758, -1.959434878635767942E-16 ) ) ;
#139 = ADVANCED_FACE ( 'NONE', ( #27 ), #142, .T. ) ;
#140 = DATE_AND_TIME ( #23, #6 ) ;
#141 = UNCERTAINTY_MEASURE_WITH_UNIT (LENGTH_MEASURE( 1.000000000000000082E-05 ), #307, 'distance_accuracy_value', 'NONE');
#142 = CONICAL_SURFACE ( 'NONE', #176, 1.599999999999994760, 1.029744258676649649 ) ;
#143 = CIRCLE ( 'NONE', #58, 1.200000000000002398 ) ;
#144 = CIRCLE ( 'NONE', #166, 1.599999999999994760 ) ;
#145 = DIRECTION ( 'NONE',  ( 0.0000000000000000000, 1.000000000000000000, 0.0000000000000000000 ) ) ;
#146 =( NAMED_UNIT ( * ) PLANE_ANGLE_UNIT ( ) SI_UNIT ( $, .RADIAN. ) );
#147 = ORIENTED_EDGE ( 'NONE', *, *, #316, .F. ) ;
#148 = VERTEX_POINT ( 'NONE', #100 ) ;
#149 = PRODUCT_RELATED_PRODUCT_CATEGORY ( 'detail', '', ( #274 ) ) ;
#150 = CALENDAR_DATE ( 2021, 2, 9 ) ;
#151 = DIRECTION ( 'NONE',  ( -3.491481338843133355E-15, 1.224646799147353207E-16, -1.000000000000000000 ) ) ;
#152 = AXIS2_PLACEMENT_3D ( 'NONE', #154, #252, #262 ) ;
#153 = APPROVAL_DATE_TIME ( #57, #25 ) ;
#154 = CARTESIAN_POINT ( 'NONE',  ( 3.356629821728761762E-15, -1.177347254121287239E-16, 0.9613769904441038516 ) ) ;
#155 = CYLINDRICAL_SURFACE ( 'NONE', #240, 1.599999999999996758 ) ;
#156 = EDGE_CURVE ( 'NONE', #324, #290, #120, .T. ) ;
#157 = APPROVAL ( #20, 'UNSPECIFIED' ) ;
#158 = CARTESIAN_POINT ( 'NONE',  ( 6.472092249790418795E-14, -1.600000000000003419, 36.00000000000000000 ) ) ;
#159 = CARTESIAN_POINT ( 'NONE',  ( 2.269462870248037060E-13, -7.960204194457797252E-15, 65.00000000000000000 ) ) ;
#160 = CARTESIAN_POINT ( 'NONE',  ( 2.255496944892664526E-13, 1.599999999999994760, 64.60000000000000853 ) ) ;
#161 = DIRECTION ( 'NONE',  ( 3.491481338843133355E-15, -1.224646799147353207E-16, 1.000000000000000000 ) ) ;
#162 = EDGE_CURVE ( 'NONE', #290, #148, #200, .T. ) ;
#163 = ORIENTED_EDGE ( 'NONE', *, *, #264, .F. ) ;
#164 = ADVANCED_FACE ( 'NONE', ( #273 ), #278, .F. ) ;
#165 = FACE_OUTER_BOUND ( 'NONE', #249, .T. ) ;
#166 = AXIS2_PLACEMENT_3D ( 'NONE', #54, #259, #31 ) ;
#167 = VERTEX_POINT ( 'NONE', #53 ) ;
#168 = LOCAL_TIME ( 15, 22, 47.00000000000000000, #169 ) ;
#169 = COORDINATED_UNIVERSAL_TIME_OFFSET ( 1, 0, .AHEAD. ) ;
#170 = ORIENTED_EDGE ( 'NONE', *, *, #204, .F. ) ;
#171 = LINE ( 'NONE', #326, #84 ) ;
#172 = PERSON_AND_ORGANIZATION ( #18, #266 ) ;
#173 = CARTESIAN_POINT ( 'NONE',  ( 1.256933281983528008E-13, -4.408728476930470856E-15, 36.00000000000000000 ) ) ;
#174 = VECTOR ( 'NONE', #239, 1000.000000000000000 ) ;
#175 = DIRECTION ( 'NONE',  ( 3.491481338843133355E-15, -1.224646799147353207E-16, 1.000000000000000000 ) ) ;
#176 = AXIS2_PLACEMENT_3D ( 'NONE', #242, #175, #332 ) ;
#177 = MECHANICAL_CONTEXT ( 'NONE', #292, 'mechanical' ) ;
#178 = CARTESIAN_POINT ( 'NONE',  ( 0.0000000000000000000, 0.0000000000000000000, 0.0000000000000000000 ) ) ;
#179 = DIRECTION ( 'NONE',  ( -3.491481338843133355E-15, 1.224646799147353207E-16, -1.000000000000000000 ) ) ;
#180 = DIRECTION ( 'NONE',  ( 1.903218546456022717E-15, 0.8571673007021097801, 0.5150380749100585964 ) ) ;
#181 = AXIS2_PLACEMENT_3D ( 'NONE', #253, #248, #124 ) ;
#182 = DIRECTION ( 'NONE',  ( -3.491481338843133355E-15, 1.224646799147353207E-16, -1.000000000000000000 ) ) ;
#183 = VERTEX_POINT ( 'NONE', #14 ) ;
#184 = EDGE_CURVE ( 'NONE', #241, #22, #328, .T. ) ;
#185 = ORIENTED_EDGE ( 'NONE', *, *, #156, .F. ) ;
#186 = DIRECTION ( 'NONE',  ( -3.491481338843133355E-15, 1.224646799147353207E-16, -1.000000000000000000 ) ) ;
#187 = AXIS2_PLACEMENT_3D ( 'NONE', #134, #179, #114 ) ;
#188 = VERTEX_POINT ( 'NONE', #218 ) ;
#189 = MANIFOLD_SOLID_BREP ( 'Corps-Déplacer/Copier1[2]', #97 ) ;
#190 = PRODUCT_DEFINITION_FORMATION_WITH_SPECIFIED_SOURCE ( 'ANY', '', #274, .NOT_KNOWN. ) ;
#191 = EDGE_CURVE ( 'NONE', #290, #217, #220, .T. ) ;
#192 = ORIENTED_EDGE ( 'NONE', *, *, #40, .F. ) ;
#193 = CARTESIAN_POINT ( 'NONE',  ( 2.255496944892664526E-13, -7.911218322491902246E-15, 64.60000000000000853 ) ) ;
#194 = ORIENTED_EDGE ( 'NONE', *, *, #56, .T. ) ;
#195 = CARTESIAN_POINT ( 'NONE',  ( 2.269462870248037060E-13, 8.998558695971044381E-33, 65.00000000000000000 ) ) ;
#196 = DIRECTION ( 'NONE',  ( -3.491481338843133355E-15, 1.224646799147353207E-16, -1.000000000000000000 ) ) ;
#197 = PERSON_AND_ORGANIZATION ( #18, #266 ) ;
#198 = VECTOR ( 'NONE', #303, 1000.000000000000000 ) ;
#199 = PERSON_AND_ORGANIZATION_ROLE ( 'classification_officer' ) ;
#200 = LINE ( 'NONE', #221, #174 ) ;
#201 = ORIENTED_EDGE ( 'NONE', *, *, #12, .T. ) ;
#202 = PERSON_AND_ORGANIZATION_ROLE ( 'creator' ) ;
#203 = ORIENTED_EDGE ( 'NONE', *, *, #184, .T. ) ;
#204 = EDGE_CURVE ( 'NONE', #188, #217, #171, .T. ) ;
#205 = ORIENTED_EDGE ( 'NONE', *, *, #191, .T. ) ;
#206 = SECURITY_CLASSIFICATION_LEVEL ( 'unclassified' ) ;
#207 = DIRECTION ( 'NONE',  ( -3.491481338843133355E-15, 1.224646799147353207E-16, -1.000000000000000000 ) ) ;
#208 = LINE ( 'NONE', #236, #286 ) ;
#209 = DIRECTION ( 'NONE',  ( -3.491481338843133355E-15, 1.224646799147353207E-16, -1.000000000000000000 ) ) ;
#210 = DIRECTION ( 'NONE',  ( -3.491481338843133355E-15, 1.224646799147353207E-16, -1.000000000000000000 ) ) ;
#211 = AXIS2_PLACEMENT_3D ( 'NONE', #80, #209, #288 ) ;
#212 = EDGE_LOOP ( 'NONE', ( #147, #322 ) ) ;
#213 = ADVANCED_FACE ( 'NONE', ( #123 ), #333, .T. ) ;
#214 = ORIENTED_EDGE ( 'NONE', *, *, #87, .F. ) ;
#215 = CIRCLE ( 'NONE', #211, 1.599999999999998979 ) ;
#216 = ORIENTED_EDGE ( 'NONE', *, *, #12, .F. ) ;
#217 = VERTEX_POINT ( 'NONE', #76 ) ;
#218 = CARTESIAN_POINT ( 'NONE',  ( 2.264194413089157110E-13, -1.200000000000010614, 65.00000000000000000 ) ) ;
#219 = EDGE_CURVE ( 'NONE', #243, #183, #62, .T. ) ;
#220 = CIRCLE ( 'NONE', #327, 1.600000000000002531 ) ;
#221 = CARTESIAN_POINT ( 'NONE',  ( 6.841330313435136573E-31, 1.600000000000000755, 1.959434878635765970E-16 ) ) ;
#222 = CARTESIAN_POINT ( 'NONE',  ( 1.256933281983528008E-13, 1.199807826129478833E-32, 36.00000000000000000 ) ) ;
#223 = DIRECTION ( 'NONE',  ( -2.468850131082257455E-15, 0.7071067811865497932, -0.7071067811865453523 ) ) ;
#224 = CIRCLE ( 'NONE', #133, 1.600000000000002531 ) ;
#225 = APPLICATION_CONTEXT ( 'configuration controlled 3d designs of mechanical parts and assemblies' ) ;
#226 = FACE_OUTER_BOUND ( 'NONE', #229, .T. ) ;
#227 = DATE_AND_TIME ( #32, #46 ) ;
#228 = APPROVAL_STATUS ( 'not_yet_approved' ) ;
#229 = EDGE_LOOP ( 'NONE', ( #34, #75, #118 ) ) ;
#230 = AXIS2_PLACEMENT_3D ( 'NONE', #178, #60, #233 ) ;
#231 = DIRECTION ( 'NONE',  ( 4.275831445896958607E-31, 1.000000000000000000, 1.224646799147353207E-16 ) ) ;
#232 = CARTESIAN_POINT ( 'NONE',  ( 3.552573309592337841E-15, 1.599999999999994538, 0.9613769904441039627 ) ) ;
#233 = DIRECTION ( 'NONE',  ( 4.275831445896958607E-31, 1.000000000000000000, 1.224646799147353207E-16 ) ) ;
#234 = DIRECTION ( 'NONE',  ( 0.0000000000000000000, 1.000000000000000000, 0.0000000000000000000 ) ) ;
#235 = PERSON_AND_ORGANIZATION_ROLE ( 'design_supplier' ) ;
#236 = CARTESIAN_POINT ( 'NONE',  ( 6.841330313435119933E-31, 1.599999999999996758, 1.959434878635761039E-16 ) ) ;
#237 = AXIS2_PLACEMENT_3D ( 'NONE', #8, #210, #238 ) ;
#238 = DIRECTION ( 'NONE',  ( 0.0000000000000000000, 1.000000000000000000, 0.0000000000000000000 ) ) ;
#239 = DIRECTION ( 'NONE',  ( -3.491481338843133355E-15, 1.224646799147353207E-16, -1.000000000000000000 ) ) ;
#240 = AXIS2_PLACEMENT_3D ( 'NONE', #38, #82, #88 ) ;
#241 = VERTEX_POINT ( 'NONE', #78 ) ;
#242 = CARTESIAN_POINT ( 'NONE',  ( 3.356629821728761762E-15, -1.177347254121287239E-16, 0.9613769904441038516 ) ) ;
#243 = VERTEX_POINT ( 'NONE', #158 ) ;
#244 = COORDINATED_UNIVERSAL_TIME_OFFSET ( 1, 0, .AHEAD. ) ;
#245 = AXIS2_PLACEMENT_3D ( 'NONE', #173, #52, #145 ) ;
#246 = DIRECTION ( 'NONE',  ( -2.382254525458708792E-15, -0.7071067811865495711, -0.7071067811865455743 ) ) ;
#247 = PERSON_AND_ORGANIZATION_ROLE ( 'creator' ) ;
#248 = DIRECTION ( 'NONE',  ( 0.0000000000000000000, 0.0000000000000000000, 1.000000000000000000 ) ) ;
#249 = EDGE_LOOP ( 'NONE', ( #216, #300, #194, #129 ) ) ;
#250 = SECURITY_CLASSIFICATION ( '', '', #206 ) ;
#251 = AXIS2_PLACEMENT_3D ( 'NONE', #109, #151, #59 ) ;
#252 = DIRECTION ( 'NONE',  ( 3.491481338843133355E-15, -1.224646799147353207E-16, 1.000000000000000000 ) ) ;
#253 = CARTESIAN_POINT ( 'NONE',  ( 0.0000000000000000000, 0.0000000000000000000, 0.0000000000000000000 ) ) ;
#254 = DIRECTION ( 'NONE',  ( 4.814824860968105397E-31, 1.000000000000000000, 1.355252715606884980E-16 ) ) ;
#255 = EDGE_CURVE ( 'NONE', #22, #111, #144, .T. ) ;
#256 = FACE_OUTER_BOUND ( 'NONE', #19, .T. ) ;
#257 = EDGE_LOOP ( 'NONE', ( #170, #277, #283, #192 ) ) ;
#258 = PERSON_AND_ORGANIZATION ( #18, #266 ) ;
#259 = DIRECTION ( 'NONE',  ( -3.491481338843133355E-15, 1.224646799147353207E-16, -1.000000000000000000 ) ) ;
#260 = AXIS2_PLACEMENT_3D ( 'NONE', #195, #196, #96 ) ;
#261 = LINE ( 'NONE', #232, #21 ) ;
#262 = DIRECTION ( 'NONE',  ( -4.814824860968105397E-31, -1.000000000000000000, -1.355252715606884980E-16 ) ) ;
#263 = DIRECTION ( 'NONE',  ( -4.275831445896958607E-31, -1.000000000000000000, -1.224646799147353207E-16 ) ) ;
#264 = EDGE_CURVE ( 'NONE', #183, #243, #280, .T. ) ;
#265 = ORIENTED_EDGE ( 'NONE', *, *, #281, .F. ) ;
#266 = ORGANIZATION ( 'UNSPECIFIED', 'UNSPECIFIED', '' ) ;
#267 = CARTESIAN_POINT ( 'NONE',  ( 1.959434878635759314E-16, -1.600000000000000755, -1.959434878635772626E-16 ) ) ;
#268 = FACE_OUTER_BOUND ( 'NONE', #39, .T. ) ;
#269 = CC_DESIGN_PERSON_AND_ORGANIZATION_ASSIGNMENT ( #105, #202, ( #308 ) ) ;
#270 = AXIS2_PLACEMENT_3D ( 'NONE', #295, #112, #231 ) ;
#271 = ORIENTED_EDGE ( 'NONE', *, *, #56, .F. ) ;
#272 = ORIENTED_EDGE ( 'NONE', *, *, #40, .T. ) ;
#273 = FACE_OUTER_BOUND ( 'NONE', #212, .T. ) ;
#274 = PRODUCT ( '41511', '41511', '', ( #177 ) ) ;
#275 = AXIS2_PLACEMENT_3D ( 'NONE', #64, #161, #263 ) ;
#276 = CC_DESIGN_DATE_AND_TIME_ASSIGNMENT ( #29, #335, ( #250 ) ) ;
#277 = ORIENTED_EDGE ( 'NONE', *, *, #69, .T. ) ;
#278 = PLANE ( 'NONE',  #260 ) ;
#279 = DIRECTION ( 'NONE',  ( -4.275831445896958607E-31, -1.000000000000000000, -1.224646799147353207E-16 ) ) ;
#280 = CIRCLE ( 'NONE', #251, 1.599999999999998979 ) ;
#281 = EDGE_CURVE ( 'NONE', #111, #22, #113, .T. ) ;
#282 = EDGE_LOOP ( 'NONE', ( #298, #3, #302, #185 ) ) ;
#283 = ORIENTED_EDGE ( 'NONE', *, *, #156, .T. ) ;
#284 = CYLINDRICAL_SURFACE ( 'NONE', #270, 1.600000000000000755 ) ;
#285 = CLOSED_SHELL ( 'NONE', ( #213, #304, #110, #92, #35, #164 ) ) ;
#286 = VECTOR ( 'NONE', #83, 1000.000000000000000 ) ;
#287 = FACE_OUTER_BOUND ( 'NONE', #325, .T. ) ;
#288 = DIRECTION ( 'NONE',  ( 0.0000000000000000000, 1.000000000000000000, 0.0000000000000000000 ) ) ;
#289 = ADVANCED_BREP_SHAPE_REPRESENTATION ( '41511', ( #95, #189, #181 ), #81 ) ;
#290 = VERTEX_POINT ( 'NONE', #160 ) ;
#291 = CARTESIAN_POINT ( 'NONE',  ( 3.356629821728760973E-15, -1.599999999999994982, 0.9613769904441036296 ) ) ;
#292 = APPLICATION_CONTEXT ( 'configuration controlled 3d designs of mechanical parts and assemblies' ) ;
#293 = PLANE ( 'NONE',  #9 ) ;
#294 = ADVANCED_FACE ( 'NONE', ( #226 ), #318, .T. ) ;
#295 = CARTESIAN_POINT ( 'NONE',  ( 0.0000000000000000000, 0.0000000000000000000, 0.0000000000000000000 ) ) ;
#296 = VECTOR ( 'NONE', #127, 1000.000000000000000 ) ;
#297 = APPROVAL_PERSON_ORGANIZATION ( #47, #157, #49 ) ;
#298 = ORIENTED_EDGE ( 'NONE', *, *, #316, .T. ) ;
#299 = DIRECTION ( 'NONE',  ( 3.491481338843133355E-15, -1.224646799147353207E-16, 1.000000000000000000 ) ) ;
#300 = ORIENTED_EDGE ( 'NONE', *, *, #219, .T. ) ;
#301 = AXIS2_PLACEMENT_3D ( 'NONE', #63, #207, #254 ) ;
#302 = ORIENTED_EDGE ( 'NONE', *, *, #191, .F. ) ;
#303 = DIRECTION ( 'NONE',  ( -3.491481338843133355E-15, 1.224646799147353207E-16, -1.000000000000000000 ) ) ;
#304 = ADVANCED_FACE ( 'NONE', ( #256 ), #1, .T. ) ;
#305 = PERSON_AND_ORGANIZATION_ROLE ( 'design_owner' ) ;
#306 = DIRECTION ( 'NONE',  ( 0.0000000000000000000, 1.000000000000000000, 0.0000000000000000000 ) ) ;
#307 =( LENGTH_UNIT ( ) NAMED_UNIT ( * ) SI_UNIT ( .MILLI., .METRE. ) );
#308 = PRODUCT_DEFINITION ( 'UNKNOWN', '', #190, #16 ) ;
#309 = DIRECTION ( 'NONE',  ( -3.491481338843133355E-15, 1.224646799147353207E-16, -1.000000000000000000 ) ) ;
#310 = COORDINATED_UNIVERSAL_TIME_OFFSET ( 1, 0, .AHEAD. ) ;
#311 = CALENDAR_DATE ( 2021, 2, 9 ) ;
#312 = EDGE_CURVE ( 'NONE', #148, #167, #215, .T. ) ;
#313 = APPROVAL_PERSON_ORGANIZATION ( #172, #45, #28 ) ;
#314 = CARTESIAN_POINT ( 'NONE',  ( 2.269462870248037060E-13, -7.960204194457797252E-15, 65.00000000000000000 ) ) ;
#315 = ORIENTED_EDGE ( 'NONE', *, *, #264, .T. ) ;
#316 = EDGE_CURVE ( 'NONE', #324, #188, #91, .T. ) ;
#317 = DIRECTION ( 'NONE',  ( 0.0000000000000000000, 1.000000000000000000, 0.0000000000000000000 ) ) ;
#318 = CONICAL_SURFACE ( 'NONE', #152, 1.599999999999994760, 1.029744258676649649 ) ;
#319 = CARTESIAN_POINT ( 'NONE',  ( 3.552573309592337841E-15, 1.599999999999994538, 0.9613769904441039627 ) ) ;
#320 = APPROVAL_PERSON_ORGANIZATION ( #79, #25, #337 ) ;
#321 = LINE ( 'NONE', #138, #102 ) ;
#322 = ORIENTED_EDGE ( 'NONE', *, *, #69, .F. ) ;
#323 = CC_DESIGN_PERSON_AND_ORGANIZATION_ASSIGNMENT ( #103, #199, ( #250 ) ) ;
#324 = VERTEX_POINT ( 'NONE', #65 ) ;
#325 = EDGE_LOOP ( 'NONE', ( #48, #44 ) ) ;
#326 = CARTESIAN_POINT ( 'NONE',  ( 2.270932446407013831E-13, -1.200000000000010614, 65.00000000000000000 ) ) ;
#327 = AXIS2_PLACEMENT_3D ( 'NONE', #193, #309, #334 ) ;
#328 = LINE ( 'NONE', #50, #296 ) ;
#329 = ORIENTED_EDGE ( 'NONE', *, *, #117, .F. ) ;
#330 = ADVANCED_FACE ( 'NONE', ( #268 ), #293, .T. ) ;
#331 = APPLICATION_PROTOCOL_DEFINITION ( 'international standard', 'config_control_design', 1994, #225 ) ;
#332 = DIRECTION ( 'NONE',  ( -4.814824860968105397E-31, -1.000000000000000000, -1.355252715606884980E-16 ) ) ;
#333 = CONICAL_SURFACE ( 'NONE', #51, 1.200000000000002398, 0.7853981633974512766 ) ;
#334 = DIRECTION ( 'NONE',  ( 0.0000000000000000000, 1.000000000000000000, 0.0000000000000000000 ) ) ;
#335 = DATE_TIME_ROLE ( 'classification_date' ) ;
#336 = APPROVAL_DATE_TIME ( #227, #45 ) ;
#337 = APPROVAL_ROLE ( '' ) ;
ENDSEC;
END-ISO-10303-21;
