ISO-10303-21;
HEADER;
FILE_DESCRIPTION (( 'STEP AP203' ),
    '1' );
FILE_NAME ('41510.step',
    '2021-09-02T13:22:46',
    ( '' ),
    ( '' ),
    'SwSTEP 2.0',
    'SolidWorks 2019',
    '' );
FILE_SCHEMA (( 'CONFIG_CONTROL_DESIGN' ));
ENDSEC;

DATA;
#1 = CARTESIAN_POINT ( 'NONE',  ( 1.599098453190155203E-13, -5.608882340094877990E-15, 45.79999999999999716 ) ) ;
#2 = DIRECTION ( 'NONE',  ( -3.491481338843133355E-15, 1.224646799147353207E-16, -1.000000000000000000 ) ) ;
#3 = ORIENTED_EDGE ( 'NONE', *, *, #69, .T. ) ;
#4 = FACE_OUTER_BOUND ( 'NONE', #34, .T. ) ;
#5 = ORIENTED_EDGE ( 'NONE', *, *, #167, .T. ) ;
#6 = DATE_TIME_ROLE ( 'classification_date' ) ;
#7 = PERSON_AND_ORGANIZATION ( #126, #236 ) ;
#8 = VERTEX_POINT ( 'NONE', #326 ) ;
#9 = CONICAL_SURFACE ( 'NONE', #148, 0.8999999999999903633, 1.029744258676649649 ) ;
#10 = ADVANCED_FACE ( 'NONE', ( #323 ), #204, .T. ) ;
#11 = ORIENTED_EDGE ( 'NONE', *, *, #167, .F. ) ;
#12 = ORIENTED_EDGE ( 'NONE', *, *, #215, .T. ) ;
#13 = CC_DESIGN_SECURITY_CLASSIFICATION ( #173, ( #202 ) ) ;
#14 = DESIGN_CONTEXT ( 'detailed design', #118, 'design' ) ;
#15 = MANIFOLD_SOLID_BREP ( 'Corps-Déplacer/Copier1[1]', #279 ) ;
#16 = APPROVAL_STATUS ( 'not_yet_approved' ) ;
#17 = CALENDAR_DATE ( 2021, 2, 9 ) ;
#18 = CARTESIAN_POINT ( 'NONE',  ( 7.681258945454893382E-14, 6.748919021978267549E-33, 22.00000000000000000 ) ) ;
#19 = AXIS2_PLACEMENT_3D ( 'NONE', #275, #29, #181 ) ;
#20 = CC_DESIGN_PERSON_AND_ORGANIZATION_ASSIGNMENT ( #293, #301, ( #287 ) ) ;
#21 = DIRECTION ( 'NONE',  ( 0.0000000000000000000, 1.000000000000000000, 0.0000000000000000000 ) ) ;
#22 = VERTEX_POINT ( 'NONE', #171 ) ;
#23 = DIRECTION ( 'NONE',  ( 0.0000000000000000000, 1.000000000000000000, 0.0000000000000000000 ) ) ;
#24 = APPROVAL_PERSON_ORGANIZATION ( #140, #166, #61 ) ;
#25 = CARTESIAN_POINT ( 'NONE',  ( 1.606081415867841091E-13, -5.633375276077824704E-15, 46.00000000000000000 ) ) ;
#26 = DIRECTION ( 'NONE',  ( -3.491481338843133355E-15, 1.224646799147353207E-16, -1.000000000000000000 ) ) ;
#27 = DIRECTION ( 'NONE',  ( 4.275831445896958607E-31, 1.000000000000000000, 1.224646799147353207E-16 ) ) ;
#28 = FACE_OUTER_BOUND ( 'NONE', #41, .T. ) ;
#29 = DIRECTION ( 'NONE',  ( -3.491481338843133355E-15, 1.224646799147353207E-16, -1.000000000000000000 ) ) ;
#30 = EDGE_CURVE ( 'NONE', #8, #272, #199, .T. ) ;
#31 = ORIENTED_EDGE ( 'NONE', *, *, #66, .T. ) ;
#32 = CARTESIAN_POINT ( 'NONE',  ( 7.681258945454893382E-14, 6.748919021978267549E-33, 22.00000000000000000 ) ) ;
#33 = AXIS2_PLACEMENT_3D ( 'NONE', #25, #223, #132 ) ;
#34 = EDGE_LOOP ( 'NONE', ( #217, #165 ) ) ;
#35 = DATE_AND_TIME ( #17, #291 ) ;
#36 = CALENDAR_DATE ( 2021, 2, 9 ) ;
#37 = ORIENTED_EDGE ( 'NONE', *, *, #128, .T. ) ;
#38 = CC_DESIGN_PERSON_AND_ORGANIZATION_ASSIGNMENT ( #7, #285, ( #173 ) ) ;
#39 = ADVANCED_FACE ( 'NONE', ( #266 ), #97, .F. ) ;
#40 = VECTOR ( 'NONE', #300, 999.9999999999998863 ) ;
#41 = EDGE_LOOP ( 'NONE', ( #111, #288, #3 ) ) ;
#42 = APPROVAL_DATE_TIME ( #234, #166 ) ;
#43 = ADVANCED_FACE ( 'NONE', ( #71 ), #49, .T. ) ;
#44 = CIRCLE ( 'NONE', #169, 0.6999999999999956257 ) ;
#45 = APPROVAL_DATE_TIME ( #96, #93 ) ;
#46 = CALENDAR_DATE ( 2021, 2, 9 ) ;
#47 = ORIENTED_EDGE ( 'NONE', *, *, #160, .F. ) ;
#48 = CC_DESIGN_APPROVAL ( #161, ( #202 ) ) ;
#49 = CYLINDRICAL_SURFACE ( 'NONE', #249, 0.8999999999999915845 ) ;
#50 = DIRECTION ( 'NONE',  ( 4.275831445896958607E-31, 1.000000000000000000, 1.224646799147353207E-16 ) ) ;
#51 = EDGE_LOOP ( 'NONE', ( #127, #5, #182, #86 ) ) ;
#52 = CARTESIAN_POINT ( 'NONE',  ( 1.603569651968315952E-13, -0.7000000000000012879, 46.00000000000000000 ) ) ;
#53 = DIRECTION ( 'NONE',  ( 1.798245827342160317E-15, -0.8571673007021098911, 0.5150380749100582634 ) ) ;
#54 = ADVANCED_FACE ( 'NONE', ( #196 ), #83, .T. ) ;
#55 = DIRECTION ( 'NONE',  ( -3.491481338843133355E-15, 1.224646799147353207E-16, -1.000000000000000000 ) ) ;
#56 = CIRCLE ( 'NONE', #302, 0.8999999999999929168 ) ;
#57 = CARTESIAN_POINT ( 'NONE',  ( 1.998322486645676305E-15, 0.8999999999999902522, 0.5407745571248047112 ) ) ;
#58 = CLOSED_SHELL ( 'NONE', ( #43, #10, #145, #259, #205 ) ) ;
#59 = DIRECTION ( 'NONE',  ( 3.491481338843133355E-15, -1.224646799147353207E-16, 1.000000000000000000 ) ) ;
#60 = DIRECTION ( 'NONE',  ( 4.279844320860569563E-31, 1.000000000000000000, 1.204669080539462163E-16 ) ) ;
#61 = APPROVAL_ROLE ( '' ) ;
#62 = FACE_OUTER_BOUND ( 'NONE', #316, .T. ) ;
#63 = CIRCLE ( 'NONE', #216, 0.8999999999999958034 ) ;
#64 = APPROVAL_DATE_TIME ( #117, #161 ) ;
#65 = DIRECTION ( 'NONE',  ( -3.491481338843133355E-15, 1.224646799147353207E-16, -1.000000000000000000 ) ) ;
#66 = EDGE_CURVE ( 'NONE', #229, #256, #257, .T. ) ;
#67 = PERSON_AND_ORGANIZATION ( #126, #236 ) ;
#68 = VECTOR ( 'NONE', #65, 1000.000000000000000 ) ;
#69 = EDGE_CURVE ( 'NONE', #231, #114, #99, .T. ) ;
#70 = DIRECTION ( 'NONE',  ( 0.0000000000000000000, 0.0000000000000000000, 1.000000000000000000 ) ) ;
#71 = FACE_OUTER_BOUND ( 'NONE', #172, .T. ) ;
#72 = LOCAL_TIME ( 15, 22, 46.00000000000000000, #271 ) ;
#73 = DIRECTION ( 'NONE',  ( -4.275831445896958607E-31, -1.000000000000000000, -1.224646799147353207E-16 ) ) ;
#74 = PERSON_AND_ORGANIZATION ( #126, #236 ) ;
#75 = CARTESIAN_POINT ( 'NONE',  ( 1.606081415867841091E-13, -5.633375276077824704E-15, 46.00000000000000000 ) ) ;
#76 = DIRECTION ( 'NONE',  ( 0.0000000000000000000, 1.000000000000000000, 0.0000000000000000000 ) ) ;
#77 = LINE ( 'NONE', #274, #170 ) ;
#78 = CARTESIAN_POINT ( 'NONE',  ( 0.0000000000000000000, 0.0000000000000000000, 0.0000000000000000000 ) ) ;
#79 = CARTESIAN_POINT ( 'NONE',  ( 0.0000000000000000000, 0.0000000000000000000, 0.0000000000000000000 ) ) ;
#80 = APPROVAL_PERSON_ORGANIZATION ( #74, #161, #296 ) ;
#81 = CARTESIAN_POINT ( 'NONE',  ( 1.606081415867841091E-13, 0.6999999999999899636, 46.00000000000000000 ) ) ;
#82 = APPLICATION_CONTEXT ( 'configuration controlled 3d designs of mechanical parts and assemblies' ) ;
#83 = CONICAL_SURFACE ( 'NONE', #115, 0.6999999999999956257, 0.7853981633974518317 ) ;
#84 = CARTESIAN_POINT ( 'NONE',  ( 7.681258945454893382E-14, -2.694222958124176809E-15, 22.00000000000000000 ) ) ;
#85 = ORIENTED_EDGE ( 'NONE', *, *, #109, .T. ) ;
#86 = ORIENTED_EDGE ( 'NONE', *, *, #91, .F. ) ;
#87 = AXIS2_PLACEMENT_3D ( 'NONE', #337, #70, #298 ) ;
#88 = CYLINDRICAL_SURFACE ( 'NONE', #324, 0.8999999999999943601 ) ;
#89 = EDGE_CURVE ( 'NONE', #22, #231, #77, .T. ) ;
#90 = ORIENTED_EDGE ( 'NONE', *, *, #314, .T. ) ;
#91 = EDGE_CURVE ( 'NONE', #238, #229, #315, .T. ) ;
#92 = EDGE_LOOP ( 'NONE', ( #11, #263, #260, #141 ) ) ;
#93 = APPROVAL ( #133, 'UNSPECIFIED' ) ;
#94 = SECURITY_CLASSIFICATION_LEVEL ( 'unclassified' ) ;
#95 = CC_DESIGN_PERSON_AND_ORGANIZATION_ASSIGNMENT ( #67, #289, ( #202 ) ) ;
#96 = DATE_AND_TIME ( #36, #319 ) ;
#97 = PLANE ( 'NONE',  #180 ) ;
#98 = AXIS2_PLACEMENT_3D ( 'NONE', #78, #55, #27 ) ;
#99 = CIRCLE ( 'NONE', #210, 0.8999999999999903633 ) ;
#100 = DIRECTION ( 'NONE',  ( 4.275831445896958607E-31, 1.000000000000000000, 1.224646799147353207E-16 ) ) ;
#101 =( LENGTH_UNIT ( ) NAMED_UNIT ( * ) SI_UNIT ( .MILLI., .METRE. ) );
#102 = CARTESIAN_POINT ( 'NONE',  ( 1.599098453190155203E-13, 0.8999999999999902522, 45.79999999999999716 ) ) ;
#103 = CARTESIAN_POINT ( 'NONE',  ( 1.599098453190155203E-13, -5.608882340094877990E-15, 45.79999999999999716 ) ) ;
#104 = ADVANCED_FACE ( 'NONE', ( #62 ), #88, .T. ) ;
#105 = DIRECTION ( 'NONE',  ( -3.491481338843133355E-15, 1.224646799147353207E-16, -1.000000000000000000 ) ) ;
#106 = CARTESIAN_POINT ( 'NONE',  ( 1.888104274722414908E-15, -0.8999999999999904743, 0.5407745571248044891 ) ) ;
#107 = CARTESIAN_POINT ( 'NONE',  ( 1.998322486645676305E-15, 0.8999999999999902522, 0.5407745571248047112 ) ) ;
#108 = DIRECTION ( 'NONE',  ( -3.491481338843133355E-15, 1.224646799147353207E-16, -1.000000000000000000 ) ) ;
#109 = EDGE_CURVE ( 'NONE', #321, #208, #218, .T. ) ;
#110 = ORIENTED_EDGE ( 'NONE', *, *, #69, .F. ) ;
#111 = ORIENTED_EDGE ( 'NONE', *, *, #187, .F. ) ;
#112 = CIRCLE ( 'NONE', #191, 0.8999999999999929168 ) ;
#113 = PERSON_AND_ORGANIZATION ( #126, #236 ) ;
#114 = VERTEX_POINT ( 'NONE', #107 ) ;
#115 = AXIS2_PLACEMENT_3D ( 'NONE', #75, #2, #207 ) ;
#116 = PRODUCT_RELATED_PRODUCT_CATEGORY ( 'detail', '', ( #267 ) ) ;
#117 = DATE_AND_TIME ( #320, #72 ) ;
#118 = APPLICATION_CONTEXT ( 'configuration controlled 3d designs of mechanical parts and assemblies' ) ;
#119 = EDGE_CURVE ( 'NONE', #114, #231, #311, .T. ) ;
#120 = LOCAL_TIME ( 15, 22, 46.00000000000000000, #142 ) ;
#121 = ORIENTED_EDGE ( 'NONE', *, *, #325, .F. ) ;
#122 =( NAMED_UNIT ( * ) SI_UNIT ( $, .STERADIAN. ) SOLID_ANGLE_UNIT ( ) );
#123 = CIRCLE ( 'NONE', #228, 0.8999999999999929168 ) ;
#124 = AXIS2_PLACEMENT_3D ( 'NONE', #251, #304, #76 ) ;
#125 = DIRECTION ( 'NONE',  ( -4.275831445896958607E-31, -1.000000000000000000, -1.224646799147353207E-16 ) ) ;
#126 = PERSON ( 'UNSPECIFIED', 'UNSPECIFIED', 'UNSPECIFIED', ('UNSPECIFIED'), ('UNSPECIFIED'), ('UNSPECIFIED') ) ;
#127 = ORIENTED_EDGE ( 'NONE', *, *, #325, .T. ) ;
#128 = EDGE_CURVE ( 'NONE', #208, #321, #56, .T. ) ;
#129 = CARTESIAN_POINT ( 'NONE',  ( 1.606938668627244313E-13, -0.7000000000000012879, 46.00000000000000000 ) ) ;
#130 = ORIENTED_EDGE ( 'NONE', *, *, #30, .F. ) ;
#131 = CC_DESIGN_APPROVAL ( #93, ( #287 ) ) ;
#132 = DIRECTION ( 'NONE',  ( 0.0000000000000000000, 1.000000000000000000, 0.0000000000000000000 ) ) ;
#133 = APPROVAL_STATUS ( 'not_yet_approved' ) ;
#134 = FACE_OUTER_BOUND ( 'NONE', #239, .T. ) ;
#135 = MANIFOLD_SOLID_BREP ( 'Corps-Déplacer/Copier1[2]', #58 ) ;
#136 = DIRECTION ( 'NONE',  ( 0.0000000000000000000, 1.000000000000000000, 0.0000000000000000000 ) ) ;
#137 = DIRECTION ( 'NONE',  ( -3.491481338843133355E-15, 1.224646799147353207E-16, -1.000000000000000000 ) ) ;
#138 = AXIS2_PLACEMENT_3D ( 'NONE', #203, #245, #21 ) ;
#139 = DIRECTION ( 'NONE',  ( 0.0000000000000000000, 1.000000000000000000, 0.0000000000000000000 ) ) ;
#140 = PERSON_AND_ORGANIZATION ( #126, #236 ) ;
#141 = ORIENTED_EDGE ( 'NONE', *, *, #215, .F. ) ;
#142 = COORDINATED_UNIVERSAL_TIME_OFFSET ( 1, 0, .AHEAD. ) ;
#143 = ORIENTED_EDGE ( 'NONE', *, *, #119, .F. ) ;
#144 = ORIENTED_EDGE ( 'NONE', *, *, #164, .F. ) ;
#145 = ADVANCED_FACE ( 'NONE', ( #28 ), #9, .T. ) ;
#146 = UNCERTAINTY_MEASURE_WITH_UNIT (LENGTH_MEASURE( 1.000000000000000082E-05 ), #101, 'distance_accuracy_value', 'NONE');
#147 = DATE_AND_TIME ( #46, #322 ) ;
#148 = AXIS2_PLACEMENT_3D ( 'NONE', #329, #59, #159 ) ;
#149 = CARTESIAN_POINT ( 'NONE',  ( 0.0000000000000000000, 0.0000000000000000000, 0.0000000000000000000 ) ) ;
#150 = MECHANICAL_CONTEXT ( 'NONE', #82, 'mechanical' ) ;
#151 = DIRECTION ( 'NONE',  ( -3.491481338843133355E-15, 1.224646799147353207E-16, -1.000000000000000000 ) ) ;
#152 = PERSON_AND_ORGANIZATION ( #126, #236 ) ;
#153 = CC_DESIGN_PERSON_AND_ORGANIZATION_ASSIGNMENT ( #113, #190, ( #202 ) ) ;
#154 = PLANE ( 'NONE',  #184 ) ;
#155 = CYLINDRICAL_SURFACE ( 'NONE', #98, 0.8999999999999943601 ) ;
#156 = DIRECTION ( 'NONE',  ( -3.491481338843133355E-15, 1.224646799147353207E-16, -1.000000000000000000 ) ) ;
#157 = CARTESIAN_POINT ( 'NONE',  ( 3.946056507655882690E-14, -0.8999999999999956923, 22.00000000000000000 ) ) ;
#158 = ORIENTED_EDGE ( 'NONE', *, *, #277, .F. ) ;
#159 = DIRECTION ( 'NONE',  ( -4.279844320860569563E-31, -1.000000000000000000, -1.204669080539462163E-16 ) ) ;
#160 = EDGE_CURVE ( 'NONE', #321, #114, #247, .T. ) ;
#161 = APPROVAL ( #16, 'UNSPECIFIED' ) ;
#162 = CC_DESIGN_APPROVAL ( #166, ( #173 ) ) ;
#163 = VERTEX_POINT ( 'NONE', #52 ) ;
#164 = EDGE_CURVE ( 'NONE', #163, #238, #178, .T. ) ;
#165 = ORIENTED_EDGE ( 'NONE', *, *, #128, .F. ) ;
#166 = APPROVAL ( #185, 'UNSPECIFIED' ) ;
#167 = EDGE_CURVE ( 'NONE', #163, #8, #198, .T. ) ;
#168 = ORIENTED_EDGE ( 'NONE', *, *, #250, .F. ) ;
#169 = AXIS2_PLACEMENT_3D ( 'NONE', #206, #241, #23 ) ;
#170 = VECTOR ( 'NONE', #53, 1000.000000000000000 ) ;
#171 = CARTESIAN_POINT ( 'NONE',  ( 0.0000000000000000000, 0.0000000000000000000, 0.0000000000000000000 ) ) ;
#172 = EDGE_LOOP ( 'NONE', ( #85, #90, #143, #47 ) ) ;
#173 = SECURITY_CLASSIFICATION ( '', '', #94 ) ;
#174 = DIRECTION ( 'NONE',  ( -3.491481338843133355E-15, 1.224646799147353207E-16, -1.000000000000000000 ) ) ;
#175 = ORIENTED_EDGE ( 'NONE', *, *, #192, .T. ) ;
#176 = DIRECTION ( 'NONE',  ( -3.491481338843133355E-15, 1.224646799147353207E-16, -1.000000000000000000 ) ) ;
#177 = CARTESIAN_POINT ( 'NONE',  ( 7.681258945454893382E-14, -2.694222958124176809E-15, 22.00000000000000000 ) ) ;
#178 = CIRCLE ( 'NONE', #138, 0.6999999999999956257 ) ;
#179 = CARTESIAN_POINT ( 'NONE',  ( 7.681258945454893382E-14, 0.8999999999999902522, 22.00000000000000000 ) ) ;
#180 = AXIS2_PLACEMENT_3D ( 'NONE', #18, #303, #125 ) ;
#181 = DIRECTION ( 'NONE',  ( 4.279844320860569563E-31, 1.000000000000000000, 1.204669080539462163E-16 ) ) ;
#182 = ORIENTED_EDGE ( 'NONE', *, *, #192, .F. ) ;
#183 = ORIENTED_EDGE ( 'NONE', *, *, #277, .T. ) ;
#184 = AXIS2_PLACEMENT_3D ( 'NONE', #32, #230, #73 ) ;
#185 = APPROVAL_STATUS ( 'not_yet_approved' ) ;
#186 = CARTESIAN_POINT ( 'NONE',  ( 1.606081415867841091E-13, 0.6999999999999899636, 46.00000000000000000 ) ) ;
#187 = EDGE_CURVE ( 'NONE', #22, #114, #227, .T. ) ;
#188 = ORIENTED_EDGE ( 'NONE', *, *, #119, .T. ) ;
#189 = VECTOR ( 'NONE', #137, 1000.000000000000000 ) ;
#190 = PERSON_AND_ORGANIZATION_ROLE ( 'creator' ) ;
#191 = AXIS2_PLACEMENT_3D ( 'NONE', #201, #336, #309 ) ;
#192 = EDGE_CURVE ( 'NONE', #229, #8, #261, .T. ) ;
#193 = EDGE_LOOP ( 'NONE', ( #258, #183 ) ) ;
#194 = ORIENTED_EDGE ( 'NONE', *, *, #187, .T. ) ;
#195 = DIRECTION ( 'NONE',  ( -3.491481338843133355E-15, 1.224646799147353207E-16, -1.000000000000000000 ) ) ;
#196 = FACE_OUTER_BOUND ( 'NONE', #92, .T. ) ;
#197 = CARTESIAN_POINT ( 'NONE',  ( 1.102182119232603736E-16, -0.8999999999999915845, -1.102182119232611502E-16 ) ) ;
#198 = LINE ( 'NONE', #129, #221 ) ;
#199 = LINE ( 'NONE', #243, #68 ) ;
#200 = DIRECTION ( 'NONE',  ( 0.0000000000000000000, 1.000000000000000000, 0.0000000000000000000 ) ) ;
#201 = CARTESIAN_POINT ( 'NONE',  ( 7.681258945454893382E-14, -2.694222958124176809E-15, 22.00000000000000000 ) ) ;
#202 = PRODUCT_DEFINITION_FORMATION_WITH_SPECIFIED_SOURCE ( 'ANY', '', #267, .NOT_KNOWN. ) ;
#203 = CARTESIAN_POINT ( 'NONE',  ( 1.606081415867841091E-13, -5.633375276077824704E-15, 46.00000000000000000 ) ) ;
#204 = CONICAL_SURFACE ( 'NONE', #262, 0.8999999999999903633, 1.029744258676649649 ) ;
#205 = ADVANCED_FACE ( 'NONE', ( #4 ), #154, .T. ) ;
#206 = CARTESIAN_POINT ( 'NONE',  ( 1.606081415867841091E-13, -5.633375276077824704E-15, 46.00000000000000000 ) ) ;
#207 = DIRECTION ( 'NONE',  ( 0.0000000000000000000, 1.000000000000000000, 0.0000000000000000000 ) ) ;
#208 = VERTEX_POINT ( 'NONE', #157 ) ;
#209 = CARTESIAN_POINT ( 'NONE',  ( 0.0000000000000000000, 0.0000000000000000000, 0.0000000000000000000 ) ) ;
#210 = AXIS2_PLACEMENT_3D ( 'NONE', #281, #26, #60 ) ;
#211 = ORIENTED_EDGE ( 'NONE', *, *, #30, .T. ) ;
#212 = ADVANCED_FACE ( 'NONE', ( #220 ), #282, .T. ) ;
#213 =( GEOMETRIC_REPRESENTATION_CONTEXT ( 3 ) GLOBAL_UNCERTAINTY_ASSIGNED_CONTEXT ( ( #146 ) ) GLOBAL_UNIT_ASSIGNED_CONTEXT ( ( #101, #332, #122 ) ) REPRESENTATION_CONTEXT ( 'NONE', 'WORKASPACE' ) );
#214 = ORIENTED_EDGE ( 'NONE', *, *, #314, .F. ) ;
#215 = EDGE_CURVE ( 'NONE', #8, #229, #63, .T. ) ;
#216 = AXIS2_PLACEMENT_3D ( 'NONE', #103, #270, #333 ) ;
#217 = ORIENTED_EDGE ( 'NONE', *, *, #109, .F. ) ;
#218 = CIRCLE ( 'NONE', #124, 0.8999999999999929168 ) ;
#219 = DIRECTION ( 'NONE',  ( -3.491481338843133355E-15, 1.224646799147353207E-16, -1.000000000000000000 ) ) ;
#220 = FACE_OUTER_BOUND ( 'NONE', #51, .T. ) ;
#221 = VECTOR ( 'NONE', #253, 1000.000000000000114 ) ;
#222 = APPLICATION_PROTOCOL_DEFINITION ( 'international standard', 'config_control_design', 1994, #118 ) ;
#223 = DIRECTION ( 'NONE',  ( -3.491481338843133355E-15, 1.224646799147353207E-16, -1.000000000000000000 ) ) ;
#224 = APPROVAL_ROLE ( '' ) ;
#225 = PLANE ( 'NONE',  #268 ) ;
#226 = DIRECTION ( 'NONE',  ( 4.275831445896958607E-31, 1.000000000000000000, 1.224646799147353207E-16 ) ) ;
#227 = LINE ( 'NONE', #57, #40 ) ;
#228 = AXIS2_PLACEMENT_3D ( 'NONE', #84, #176, #200 ) ;
#229 = VERTEX_POINT ( 'NONE', #102 ) ;
#230 = DIRECTION ( 'NONE',  ( 3.491481338843133355E-15, -1.224646799147353207E-16, 1.000000000000000000 ) ) ;
#231 = VERTEX_POINT ( 'NONE', #106 ) ;
#232 = EDGE_LOOP ( 'NONE', ( #130, #12, #31, #158 ) ) ;
#233 = CARTESIAN_POINT ( 'NONE',  ( 7.681258945454893382E-14, 0.8999999999999902522, 22.00000000000000000 ) ) ;
#234 = DATE_AND_TIME ( #286, #120 ) ;
#235 = ORIENTED_EDGE ( 'NONE', *, *, #89, .F. ) ;
#236 = ORGANIZATION ( 'UNSPECIFIED', 'UNSPECIFIED', '' ) ;
#237 = VECTOR ( 'NONE', #108, 1000.000000000000000 ) ;
#238 = VERTEX_POINT ( 'NONE', #81 ) ;
#239 = EDGE_LOOP ( 'NONE', ( #121, #144 ) ) ;
#240 = EDGE_LOOP ( 'NONE', ( #235, #194, #188 ) ) ;
#241 = DIRECTION ( 'NONE',  ( -3.491481338843133355E-15, 1.224646799147353207E-16, -1.000000000000000000 ) ) ;
#242 = DATE_TIME_ROLE ( 'creation_date' ) ;
#243 = CARTESIAN_POINT ( 'NONE',  ( 1.102182119232607188E-16, -0.8999999999999943601, -1.102182119232614583E-16 ) ) ;
#244 = LINE ( 'NONE', #197, #189 ) ;
#245 = DIRECTION ( 'NONE',  ( -3.491481338843133355E-15, 1.224646799147353207E-16, -1.000000000000000000 ) ) ;
#246 = PERSON_AND_ORGANIZATION_ROLE ( 'design_owner' ) ;
#247 = LINE ( 'NONE', #310, #276 ) ;
#248 = CARTESIAN_POINT ( 'NONE',  ( 1.184714355987054660E-13, -0.8999999999999956923, 22.00000000000000000 ) ) ;
#249 = AXIS2_PLACEMENT_3D ( 'NONE', #149, #219, #100 ) ;
#250 = EDGE_CURVE ( 'NONE', #256, #272, #123, .T. ) ;
#251 = CARTESIAN_POINT ( 'NONE',  ( 7.681258945454893382E-14, -2.694222958124176809E-15, 22.00000000000000000 ) ) ;
#252 = ORIENTED_EDGE ( 'NONE', *, *, #66, .F. ) ;
#253 = DIRECTION ( 'NONE',  ( -2.382254525458706820E-15, -0.7071067811865499042, -0.7071067811865451302 ) ) ;
#254 = CARTESIAN_POINT ( 'NONE',  ( 3.848248301307238486E-31, 0.8999999999999943601, 1.102182119232611009E-16 ) ) ;
#255 = AXIS2_PLACEMENT_3D ( 'NONE', #1, #280, #139 ) ;
#256 = VERTEX_POINT ( 'NONE', #179 ) ;
#257 = LINE ( 'NONE', #254, #237 ) ;
#258 = ORIENTED_EDGE ( 'NONE', *, *, #250, .T. ) ;
#259 = ADVANCED_FACE ( 'NONE', ( #273 ), #307, .T. ) ;
#260 = ORIENTED_EDGE ( 'NONE', *, *, #91, .T. ) ;
#261 = CIRCLE ( 'NONE', #255, 0.8999999999999958034 ) ;
#262 = AXIS2_PLACEMENT_3D ( 'NONE', #297, #330, #294 ) ;
#263 = ORIENTED_EDGE ( 'NONE', *, *, #164, .T. ) ;
#264 = CC_DESIGN_DATE_AND_TIME_ASSIGNMENT ( #147, #242, ( #287 ) ) ;
#265 = COORDINATED_UNIVERSAL_TIME_OFFSET ( 1, 0, .AHEAD. ) ;
#266 = FACE_OUTER_BOUND ( 'NONE', #193, .T. ) ;
#267 = PRODUCT ( '41510', '41510', '', ( #150 ) ) ;
#268 = AXIS2_PLACEMENT_3D ( 'NONE', #335, #105, #306 ) ;
#269 = APPLICATION_PROTOCOL_DEFINITION ( 'international standard', 'config_control_design', 1994, #82 ) ;
#270 = DIRECTION ( 'NONE',  ( -3.491481338843133355E-15, 1.224646799147353207E-16, -1.000000000000000000 ) ) ;
#271 = COORDINATED_UNIVERSAL_TIME_OFFSET ( 1, 0, .AHEAD. ) ;
#272 = VERTEX_POINT ( 'NONE', #248 ) ;
#273 = FACE_OUTER_BOUND ( 'NONE', #312, .T. ) ;
#274 = CARTESIAN_POINT ( 'NONE',  ( 1.888104274722414908E-15, -0.8999999999999904743, 0.5407745571248044891 ) ) ;
#275 = CARTESIAN_POINT ( 'NONE',  ( 1.888104274722415302E-15, -6.622578304432193879E-17, 0.5407745571248046002 ) ) ;
#276 = VECTOR ( 'NONE', #195, 1000.000000000000000 ) ;
#277 = EDGE_CURVE ( 'NONE', #272, #256, #112, .T. ) ;
#278 = FACE_OUTER_BOUND ( 'NONE', #232, .T. ) ;
#279 = CLOSED_SHELL ( 'NONE', ( #212, #104, #39, #295, #54, #308 ) ) ;
#280 = DIRECTION ( 'NONE',  ( -3.491481338843133355E-15, 1.224646799147353207E-16, -1.000000000000000000 ) ) ;
#281 = CARTESIAN_POINT ( 'NONE',  ( 1.888104274722415302E-15, -6.622578304432193879E-17, 0.5407745571248046002 ) ) ;
#282 = CONICAL_SURFACE ( 'NONE', #33, 0.6999999999999956257, 0.7853981633974518317 ) ;
#283 = APPROVAL_PERSON_ORGANIZATION ( #331, #93, #224 ) ;
#284 = DIRECTION ( 'NONE',  ( -2.468850131082256272E-15, 0.7071067811865501263, -0.7071067811865449082 ) ) ;
#285 = PERSON_AND_ORGANIZATION_ROLE ( 'classification_officer' ) ;
#286 = CALENDAR_DATE ( 2021, 2, 9 ) ;
#287 = PRODUCT_DEFINITION ( 'UNKNOWN', '', #202, #14 ) ;
#288 = ORIENTED_EDGE ( 'NONE', *, *, #89, .T. ) ;
#289 = PERSON_AND_ORGANIZATION_ROLE ( 'design_supplier' ) ;
#290 = COORDINATED_UNIVERSAL_TIME_OFFSET ( 1, 0, .AHEAD. ) ;
#291 = LOCAL_TIME ( 15, 22, 46.00000000000000000, #290 ) ;
#292 = VECTOR ( 'NONE', #284, 1000.000000000000000 ) ;
#293 = PERSON_AND_ORGANIZATION ( #126, #236 ) ;
#294 = DIRECTION ( 'NONE',  ( -4.279844320860569563E-31, -1.000000000000000000, -1.204669080539462163E-16 ) ) ;
#295 = ADVANCED_FACE ( 'NONE', ( #278 ), #155, .T. ) ;
#296 = APPROVAL_ROLE ( '' ) ;
#297 = CARTESIAN_POINT ( 'NONE',  ( 1.888104274722415302E-15, -6.622578304432193879E-17, 0.5407745571248046002 ) ) ;
#298 = DIRECTION ( 'NONE',  ( 1.000000000000000000, 0.0000000000000000000, 0.0000000000000000000 ) ) ;
#299 = CC_DESIGN_PERSON_AND_ORGANIZATION_ASSIGNMENT ( #152, #246, ( #267 ) ) ;
#300 = DIRECTION ( 'NONE',  ( 1.903218546456022717E-15, 0.8571673007021097801, 0.5150380749100585964 ) ) ;
#301 = PERSON_AND_ORGANIZATION_ROLE ( 'creator' ) ;
#302 = AXIS2_PLACEMENT_3D ( 'NONE', #177, #174, #136 ) ;
#303 = DIRECTION ( 'NONE',  ( 3.491481338843133355E-15, -1.224646799147353207E-16, 1.000000000000000000 ) ) ;
#304 = DIRECTION ( 'NONE',  ( -3.491481338843133355E-15, 1.224646799147353207E-16, -1.000000000000000000 ) ) ;
#305 = CC_DESIGN_DATE_AND_TIME_ASSIGNMENT ( #35, #6, ( #173 ) ) ;
#306 = DIRECTION ( 'NONE',  ( 4.275831445896958607E-31, 1.000000000000000000, 1.224646799147353207E-16 ) ) ;
#307 = CYLINDRICAL_SURFACE ( 'NONE', #328, 0.8999999999999915845 ) ;
#308 = ADVANCED_FACE ( 'NONE', ( #134 ), #225, .F. ) ;
#309 = DIRECTION ( 'NONE',  ( 0.0000000000000000000, 1.000000000000000000, 0.0000000000000000000 ) ) ;
#310 = CARTESIAN_POINT ( 'NONE',  ( 3.848248301307227100E-31, 0.8999999999999915845, 1.102182119232607681E-16 ) ) ;
#311 = CIRCLE ( 'NONE', #19, 0.8999999999999903633 ) ;
#312 = EDGE_LOOP ( 'NONE', ( #214, #37, #313, #110 ) ) ;
#313 = ORIENTED_EDGE ( 'NONE', *, *, #160, .T. ) ;
#314 = EDGE_CURVE ( 'NONE', #208, #231, #244, .T. ) ;
#315 = LINE ( 'NONE', #186, #292 ) ;
#316 = EDGE_LOOP ( 'NONE', ( #175, #211, #168, #252 ) ) ;
#317 = ADVANCED_BREP_SHAPE_REPRESENTATION ( '41510', ( #15, #135, #87 ), #213 ) ;
#318 = SHAPE_DEFINITION_REPRESENTATION ( #327, #317 ) ;
#319 = LOCAL_TIME ( 15, 22, 46.00000000000000000, #334 ) ;
#320 = CALENDAR_DATE ( 2021, 2, 9 ) ;
#321 = VERTEX_POINT ( 'NONE', #233 ) ;
#322 = LOCAL_TIME ( 15, 22, 46.00000000000000000, #265 ) ;
#323 = FACE_OUTER_BOUND ( 'NONE', #240, .T. ) ;
#324 = AXIS2_PLACEMENT_3D ( 'NONE', #209, #151, #50 ) ;
#325 = EDGE_CURVE ( 'NONE', #238, #163, #44, .T. ) ;
#326 = CARTESIAN_POINT ( 'NONE',  ( 1.184714355987053650E-13, -0.9000000000000014655, 45.79999999999999716 ) ) ;
#327 = PRODUCT_DEFINITION_SHAPE ( 'NONE', 'NONE',  #287 ) ;
#328 = AXIS2_PLACEMENT_3D ( 'NONE', #79, #156, #226 ) ;
#329 = CARTESIAN_POINT ( 'NONE',  ( 1.888104274722415302E-15, -6.622578304432193879E-17, 0.5407745571248046002 ) ) ;
#330 = DIRECTION ( 'NONE',  ( 3.491481338843133355E-15, -1.224646799147353207E-16, 1.000000000000000000 ) ) ;
#331 = PERSON_AND_ORGANIZATION ( #126, #236 ) ;
#332 =( NAMED_UNIT ( * ) PLANE_ANGLE_UNIT ( ) SI_UNIT ( $, .RADIAN. ) );
#333 = DIRECTION ( 'NONE',  ( 0.0000000000000000000, 1.000000000000000000, 0.0000000000000000000 ) ) ;
#334 = COORDINATED_UNIVERSAL_TIME_OFFSET ( 1, 0, .AHEAD. ) ;
#335 = CARTESIAN_POINT ( 'NONE',  ( 1.606081415867841091E-13, 5.249159239316384624E-33, 46.00000000000000000 ) ) ;
#336 = DIRECTION ( 'NONE',  ( -3.491481338843133355E-15, 1.224646799147353207E-16, -1.000000000000000000 ) ) ;
#337 = CARTESIAN_POINT ( 'NONE',  ( 0.0000000000000000000, 0.0000000000000000000, 0.0000000000000000000 ) ) ;
ENDSEC;
END-ISO-10303-21;
