ISO-10303-21;
HEADER;
FILE_DESCRIPTION (( 'STEP AP203' ),
    '1' );
FILE_NAME ('41502.step',
    '2021-10-06T08:24:57',
    ( '' ),
    ( '' ),
    'SwSTEP 2.0',
    'SolidWorks 2019',
    '' );
FILE_SCHEMA (( 'CONFIG_CONTROL_DESIGN' ));
ENDSEC;

DATA;
#1 = EDGE_LOOP ( 'NONE', ( #136 ) ) ;
#2 = DIRECTION ( 'NONE',  ( -3.491481338843133355E-15, 1.224646799147353207E-16, -1.000000000000000000 ) ) ;
#3 = DIRECTION ( 'NONE',  ( 0.0000000000000000000, 1.000000000000000000, 0.0000000000000000000 ) ) ;
#4 = AXIS2_PLACEMENT_3D ( 'NONE', #38, #104, #151 ) ;
#5 = PERSON_AND_ORGANIZATION ( #173, #62 ) ;
#6 = ADVANCED_FACE ( 'NONE', ( #122, #186 ), #153, .T. ) ;
#7 = PERSON_AND_ORGANIZATION ( #173, #62 ) ;
#8 = SECURITY_CLASSIFICATION ( '', '', #100 ) ;
#9 = APPROVAL_ROLE ( '' ) ;
#10 = CC_DESIGN_PERSON_AND_ORGANIZATION_ASSIGNMENT ( #193, #32, ( #8 ) ) ;
#11 = DIRECTION ( 'NONE',  ( -3.491481338843133355E-15, 1.224646799147353207E-16, -1.000000000000000000 ) ) ;
#12 = ORIENTED_EDGE ( 'NONE', *, *, #42, .T. ) ;
#13 = AXIS2_PLACEMENT_3D ( 'NONE', #76, #2, #124 ) ;
#14 = PERSON_AND_ORGANIZATION_ROLE ( 'design_owner' ) ;
#15 = FACE_OUTER_BOUND ( 'NONE', #24, .T. ) ;
#16 = VERTEX_POINT ( 'NONE', #189 ) ;
#17 = AXIS2_PLACEMENT_3D ( 'NONE', #31, #123, #93 ) ;
#18 = DATE_AND_TIME ( #176, #184 ) ;
#19 = SHAPE_DEFINITION_REPRESENTATION ( #108, #118 ) ;
#20 = CC_DESIGN_APPROVAL ( #97, ( #117 ) ) ;
#21 = APPROVAL_ROLE ( '' ) ;
#22 = MANIFOLD_SOLID_BREP ( 'Corps-Déplacer/Copier1[1]', #175 ) ;
#23 = MANIFOLD_SOLID_BREP ( 'Corps-Déplacer/Copier1[2]', #35 ) ;
#24 = EDGE_LOOP ( 'NONE', ( #150 ) ) ;
#25 = DIRECTION ( 'NONE',  ( -3.491481338843133355E-15, 1.224646799147353207E-16, -1.000000000000000000 ) ) ;
#26 = CARTESIAN_POINT ( 'NONE',  ( 2.793185071074506684E-14, 4.124339402320074210E-33, 8.000000000000000000 ) ) ;
#27 = ORIENTED_EDGE ( 'NONE', *, *, #195, .T. ) ;
#28 = CARTESIAN_POINT ( 'NONE',  ( 2.793185071074506684E-14, 4.124339402320074210E-33, 8.000000000000000000 ) ) ;
#29 = CC_DESIGN_APPROVAL ( #156, ( #8 ) ) ;
#30 = ADVANCED_FACE ( 'NONE', ( #121 ), #39, .F. ) ;
#31 = CARTESIAN_POINT ( 'NONE',  ( 2.793185071074506684E-14, -9.797174393178825657E-16, 8.000000000000000000 ) ) ;
#32 = PERSON_AND_ORGANIZATION_ROLE ( 'classification_officer' ) ;
#33 = APPROVAL_STATUS ( 'not_yet_approved' ) ;
#34 = CC_DESIGN_DATE_AND_TIME_ASSIGNMENT ( #18, #66, ( #8 ) ) ;
#35 = CLOSED_SHELL ( 'NONE', ( #200, #135, #75 ) ) ;
#36 = ADVANCED_FACE ( 'NONE', ( #199 ), #87, .F. ) ;
#37 = ORIENTED_EDGE ( 'NONE', *, *, #195, .F. ) ;
#38 = CARTESIAN_POINT ( 'NONE',  ( 1.108694229968406617E-15, -3.888775875324678368E-17, 0.3175426480542958285 ) ) ;
#39 = PLANE ( 'NONE',  #47 ) ;
#40 = AXIS2_PLACEMENT_3D ( 'NONE', #63, #125, #3 ) ;
#41 = CARTESIAN_POINT ( 'NONE',  ( 1.047444401652940007E-13, 0.3499999999999963696, 30.00000000000000000 ) ) ;
#42 = EDGE_CURVE ( 'NONE', #16, #16, #112, .T. ) ;
#43 = CARTESIAN_POINT ( 'NONE',  ( 1.040461438975253740E-13, 0.5499999999999963807, 29.80000000000000071 ) ) ;
#44 = CYLINDRICAL_SURFACE ( 'NONE', #167, 0.5499999999999969358 ) ;
#45 = CARTESIAN_POINT ( 'NONE',  ( 2.793185071074506684E-14, 0.5499999999999963807, 8.000000000000000000 ) ) ;
#46 = PRODUCT_RELATED_PRODUCT_CATEGORY ( 'detail', '', ( #194 ) ) ;
#47 = AXIS2_PLACEMENT_3D ( 'NONE', #28, #114, #103 ) ;
#48 = LOCAL_TIME ( 10, 24, 57.00000000000000000, #53 ) ;
#49 =( NAMED_UNIT ( * ) SI_UNIT ( $, .STERADIAN. ) SOLID_ANGLE_UNIT ( ) );
#50 = LOCAL_TIME ( 10, 24, 57.00000000000000000, #54 ) ;
#51 = PERSON_AND_ORGANIZATION ( #173, #62 ) ;
#52 = ORIENTED_EDGE ( 'NONE', *, *, #85, .F. ) ;
#53 = COORDINATED_UNIVERSAL_TIME_OFFSET ( 1, 0, .AHEAD. ) ;
#54 = COORDINATED_UNIVERSAL_TIME_OFFSET ( 1, 0, .AHEAD. ) ;
#55 = EDGE_LOOP ( 'NONE', ( #134 ) ) ;
#56 = DIRECTION ( 'NONE',  ( 3.491481338843133355E-15, -1.224646799147353207E-16, 1.000000000000000000 ) ) ;
#57 = CC_DESIGN_APPROVAL ( #120, ( #81 ) ) ;
#58 = ORIENTED_EDGE ( 'NONE', *, *, #161, .F. ) ;
#59 = EDGE_LOOP ( 'NONE', ( #12 ) ) ;
#60 = CARTESIAN_POINT ( 'NONE',  ( 0.0000000000000000000, 0.0000000000000000000, 0.0000000000000000000 ) ) ;
#61 = CARTESIAN_POINT ( 'NONE',  ( 1.047444401652940007E-13, -3.673940397442059178E-15, 30.00000000000000000 ) ) ;
#62 = ORGANIZATION ( 'UNSPECIFIED', 'UNSPECIFIED', '' ) ;
#63 = CARTESIAN_POINT ( 'NONE',  ( 1.040461438975253740E-13, -3.649447461459112464E-15, 29.80000000000000071 ) ) ;
#64 = DIRECTION ( 'NONE',  ( -3.501690807976815351E-31, -1.000000000000000000, -9.856383386231922922E-17 ) ) ;
#65 = APPROVAL_PERSON_ORGANIZATION ( #115, #97, #21 ) ;
#66 = DATE_TIME_ROLE ( 'classification_date' ) ;
#67 = DATE_AND_TIME ( #99, #48 ) ;
#68 = COORDINATED_UNIVERSAL_TIME_OFFSET ( 1, 0, .AHEAD. ) ;
#69 = AXIS2_PLACEMENT_3D ( 'NONE', #142, #187, #64 ) ;
#70 = PERSON_AND_ORGANIZATION_ROLE ( 'creator' ) ;
#71 = APPROVAL_ROLE ( '' ) ;
#72 = AXIS2_PLACEMENT_3D ( 'NONE', #73, #11, #133 ) ;
#73 = CARTESIAN_POINT ( 'NONE',  ( 2.793185071074506684E-14, -9.797174393178825657E-16, 8.000000000000000000 ) ) ;
#74 = CARTESIAN_POINT ( 'NONE',  ( 1.047444401652940007E-13, -3.673940397442059178E-15, 30.00000000000000000 ) ) ;
#75 = ADVANCED_FACE ( 'NONE', ( #183 ), #201, .T. ) ;
#76 = CARTESIAN_POINT ( 'NONE',  ( 0.0000000000000000000, 0.0000000000000000000, 0.0000000000000000000 ) ) ;
#77 = VERTEX_POINT ( 'NONE', #41 ) ;
#78 = DIRECTION ( 'NONE',  ( -3.491481338843133355E-15, 1.224646799147353207E-16, -1.000000000000000000 ) ) ;
#79 = DIRECTION ( 'NONE',  ( 0.0000000000000000000, 0.0000000000000000000, 1.000000000000000000 ) ) ;
#80 = MECHANICAL_CONTEXT ( 'NONE', #145, 'mechanical' ) ;
#81 = PRODUCT_DEFINITION_FORMATION_WITH_SPECIFIED_SOURCE ( 'ANY', '', #194, .NOT_KNOWN. ) ;
#82 = CALENDAR_DATE ( 2021, 6, 10 ) ;
#83 = APPROVAL_DATE_TIME ( #127, #156 ) ;
#84 =( GEOMETRIC_REPRESENTATION_CONTEXT ( 3 ) GLOBAL_UNCERTAINTY_ASSIGNED_CONTEXT ( ( #174 ) ) GLOBAL_UNIT_ASSIGNED_CONTEXT ( ( #107, #192, #49 ) ) REPRESENTATION_CONTEXT ( 'NONE', 'WORKASPACE' ) );
#85 = EDGE_CURVE ( 'NONE', #169, #169, #91, .T. ) ;
#86 = PERSON_AND_ORGANIZATION ( #173, #62 ) ;
#87 = PLANE ( 'NONE',  #180 ) ;
#88 = CC_DESIGN_PERSON_AND_ORGANIZATION_ASSIGNMENT ( #95, #14, ( #194 ) ) ;
#89 = DIRECTION ( 'NONE',  ( 0.0000000000000000000, 1.000000000000000000, 0.0000000000000000000 ) ) ;
#90 = CC_DESIGN_DATE_AND_TIME_ASSIGNMENT ( #67, #179, ( #117 ) ) ;
#91 = CIRCLE ( 'NONE', #4, 0.5499999999999963807 ) ;
#92 = CARTESIAN_POINT ( 'NONE',  ( 0.0000000000000000000, 0.0000000000000000000, 0.0000000000000000000 ) ) ;
#93 = DIRECTION ( 'NONE',  ( 0.0000000000000000000, 1.000000000000000000, 0.0000000000000000000 ) ) ;
#94 = DIRECTION ( 'NONE',  ( 0.0000000000000000000, 1.000000000000000000, 0.0000000000000000000 ) ) ;
#95 = PERSON_AND_ORGANIZATION ( #173, #62 ) ;
#96 = VERTEX_POINT ( 'NONE', #43 ) ;
#97 = APPROVAL ( #144, 'UNSPECIFIED' ) ;
#98 = CALENDAR_DATE ( 2021, 6, 10 ) ;
#99 = CALENDAR_DATE ( 2021, 6, 10 ) ;
#100 = SECURITY_CLASSIFICATION_LEVEL ( 'unclassified' ) ;
#101 = EDGE_LOOP ( 'NONE', ( #27 ) ) ;
#102 = APPROVAL_DATE_TIME ( #178, #120 ) ;
#103 = DIRECTION ( 'NONE',  ( -4.275831445896958607E-31, -1.000000000000000000, -1.224646799147353207E-16 ) ) ;
#104 = DIRECTION ( 'NONE',  ( -3.491481338843133355E-15, 1.224646799147353207E-16, -1.000000000000000000 ) ) ;
#105 = CC_DESIGN_PERSON_AND_ORGANIZATION_ASSIGNMENT ( #7, #70, ( #117 ) ) ;
#106 = CIRCLE ( 'NONE', #17, 0.5499999999999972689 ) ;
#107 =( LENGTH_UNIT ( ) NAMED_UNIT ( * ) SI_UNIT ( .MILLI., .METRE. ) );
#108 = PRODUCT_DEFINITION_SHAPE ( 'NONE', 'NONE',  #117 ) ;
#109 = CONICAL_SURFACE ( 'NONE', #69, 0.5499999999999963807, 1.047197551196592746 ) ;
#110 = FACE_OUTER_BOUND ( 'NONE', #59, .T. ) ;
#111 = DIRECTION ( 'NONE',  ( 4.275831445896958607E-31, 1.000000000000000000, 1.224646799147352961E-16 ) ) ;
#112 = CIRCLE ( 'NONE', #72, 0.5499999999999972689 ) ;
#113 = PERSON_AND_ORGANIZATION_ROLE ( 'design_supplier' ) ;
#114 = DIRECTION ( 'NONE',  ( 3.491481338843133355E-15, -1.224646799147353207E-16, 1.000000000000000000 ) ) ;
#115 = PERSON_AND_ORGANIZATION ( #173, #62 ) ;
#116 = APPROVAL_PERSON_ORGANIZATION ( #86, #156, #71 ) ;
#117 = PRODUCT_DEFINITION ( 'UNKNOWN', '', #81, #168 ) ;
#118 = ADVANCED_BREP_SHAPE_REPRESENTATION ( '41502', ( #22, #23, #138 ), #84 ) ;
#119 = DIRECTION ( 'NONE',  ( -4.275831445896958607E-31, -1.000000000000000000, -1.224646799147353207E-16 ) ) ;
#120 = APPROVAL ( #126, 'UNSPECIFIED' ) ;
#121 = FACE_OUTER_BOUND ( 'NONE', #1, .T. ) ;
#122 = FACE_OUTER_BOUND ( 'NONE', #202, .T. ) ;
#123 = DIRECTION ( 'NONE',  ( -3.491481338843133355E-15, 1.224646799147353207E-16, -1.000000000000000000 ) ) ;
#124 = DIRECTION ( 'NONE',  ( 4.275831445896958607E-31, 1.000000000000000000, 1.224646799147353207E-16 ) ) ;
#125 = DIRECTION ( 'NONE',  ( -3.491481338843133355E-15, 1.224646799147353207E-16, -1.000000000000000000 ) ) ;
#126 = APPROVAL_STATUS ( 'not_yet_approved' ) ;
#127 = DATE_AND_TIME ( #147, #50 ) ;
#128 = APPLICATION_PROTOCOL_DEFINITION ( 'international standard', 'config_control_design', 1994, #159 ) ;
#129 = PERSON_AND_ORGANIZATION_ROLE ( 'creator' ) ;
#130 = CC_DESIGN_PERSON_AND_ORGANIZATION_ASSIGNMENT ( #146, #129, ( #81 ) ) ;
#131 = CIRCLE ( 'NONE', #40, 0.5500000000000000444 ) ;
#132 = APPROVAL_PERSON_ORGANIZATION ( #5, #120, #9 ) ;
#133 = DIRECTION ( 'NONE',  ( 0.0000000000000000000, 1.000000000000000000, 0.0000000000000000000 ) ) ;
#134 = ORIENTED_EDGE ( 'NONE', *, *, #161, .T. ) ;
#135 = ADVANCED_FACE ( 'NONE', ( #158, #110 ), #44, .T. ) ;
#136 = ORIENTED_EDGE ( 'NONE', *, *, #171, .T. ) ;
#137 = AXIS2_PLACEMENT_3D ( 'NONE', #74, #25, #89 ) ;
#138 = AXIS2_PLACEMENT_3D ( 'NONE', #92, #79, #172 ) ;
#139 = EDGE_LOOP ( 'NONE', ( #52 ) ) ;
#140 = FACE_OUTER_BOUND ( 'NONE', #101, .T. ) ;
#141 = CARTESIAN_POINT ( 'NONE',  ( 1.108694229968406815E-15, 0.5499999999999963807, 0.3175426480542958840 ) ) ;
#142 = CARTESIAN_POINT ( 'NONE',  ( 1.108694229968406617E-15, -3.888775875324678368E-17, 0.3175426480542958285 ) ) ;
#143 = CIRCLE ( 'NONE', #198, 0.3500000000000000333 ) ;
#144 = APPROVAL_STATUS ( 'not_yet_approved' ) ;
#145 = APPLICATION_CONTEXT ( 'configuration controlled 3d designs of mechanical parts and assemblies' ) ;
#146 = PERSON_AND_ORGANIZATION ( #173, #62 ) ;
#147 = CALENDAR_DATE ( 2021, 6, 10 ) ;
#148 = APPROVAL_DATE_TIME ( #196, #97 ) ;
#149 = DIRECTION ( 'NONE',  ( 4.275831445896958607E-31, 1.000000000000000000, 1.224646799147353207E-16 ) ) ;
#150 = ORIENTED_EDGE ( 'NONE', *, *, #85, .T. ) ;
#151 = DIRECTION ( 'NONE',  ( 3.501690807976815351E-31, 1.000000000000000000, 9.856383386231922922E-17 ) ) ;
#152 = EDGE_LOOP ( 'NONE', ( #166 ) ) ;
#153 = CONICAL_SURFACE ( 'NONE', #137, 0.3500000000000000333, 0.7853981633974512766 ) ;
#154 = CC_DESIGN_PERSON_AND_ORGANIZATION_ASSIGNMENT ( #51, #113, ( #81 ) ) ;
#155 = CYLINDRICAL_SURFACE ( 'NONE', #13, 0.5499999999999986011 ) ;
#156 = APPROVAL ( #33, 'UNSPECIFIED' ) ;
#157 = FACE_OUTER_BOUND ( 'NONE', #182, .T. ) ;
#158 = FACE_OUTER_BOUND ( 'NONE', #139, .T. ) ;
#159 = APPLICATION_CONTEXT ( 'configuration controlled 3d designs of mechanical parts and assemblies' ) ;
#160 = COORDINATED_UNIVERSAL_TIME_OFFSET ( 1, 0, .AHEAD. ) ;
#161 = EDGE_CURVE ( 'NONE', #77, #77, #143, .T. ) ;
#162 = COORDINATED_UNIVERSAL_TIME_OFFSET ( 1, 0, .AHEAD. ) ;
#163 = DIRECTION ( 'NONE',  ( -3.491481338843133355E-15, 1.224646799147353207E-16, -1.000000000000000000 ) ) ;
#164 = AXIS2_PLACEMENT_3D ( 'NONE', #26, #56, #119 ) ;
#165 = ORIENTED_EDGE ( 'NONE', *, *, #171, .F. ) ;
#166 = ORIENTED_EDGE ( 'NONE', *, *, #42, .F. ) ;
#167 = AXIS2_PLACEMENT_3D ( 'NONE', #60, #190, #111 ) ;
#168 = DESIGN_CONTEXT ( 'detailed design', #159, 'design' ) ;
#169 = VERTEX_POINT ( 'NONE', #141 ) ;
#170 = APPLICATION_PROTOCOL_DEFINITION ( 'international standard', 'config_control_design', 1994, #145 ) ;
#171 = EDGE_CURVE ( 'NONE', #188, #188, #106, .T. ) ;
#172 = DIRECTION ( 'NONE',  ( 1.000000000000000000, 0.0000000000000000000, 0.0000000000000000000 ) ) ;
#173 = PERSON ( 'UNSPECIFIED', 'UNSPECIFIED', 'UNSPECIFIED', ('UNSPECIFIED'), ('UNSPECIFIED'), ('UNSPECIFIED') ) ;
#174 = UNCERTAINTY_MEASURE_WITH_UNIT (LENGTH_MEASURE( 1.000000000000000082E-05 ), #107, 'distance_accuracy_value', 'NONE');
#175 = CLOSED_SHELL ( 'NONE', ( #30, #197, #6, #36 ) ) ;
#176 = CALENDAR_DATE ( 2021, 6, 10 ) ;
#177 = CARTESIAN_POINT ( 'NONE',  ( 1.047444401652940007E-13, 2.624579619658196075E-33, 30.00000000000000000 ) ) ;
#178 = DATE_AND_TIME ( #98, #181 ) ;
#179 = DATE_TIME_ROLE ( 'creation_date' ) ;
#180 = AXIS2_PLACEMENT_3D ( 'NONE', #177, #163, #149 ) ;
#181 = LOCAL_TIME ( 10, 24, 57.00000000000000000, #160 ) ;
#182 = EDGE_LOOP ( 'NONE', ( #165 ) ) ;
#183 = FACE_OUTER_BOUND ( 'NONE', #152, .T. ) ;
#184 = LOCAL_TIME ( 10, 24, 57.00000000000000000, #162 ) ;
#185 = EDGE_LOOP ( 'NONE', ( #58 ) ) ;
#186 = FACE_BOUND ( 'NONE', #55, .T. ) ;
#187 = DIRECTION ( 'NONE',  ( 3.491481338843133355E-15, -1.224646799147353207E-16, 1.000000000000000000 ) ) ;
#188 = VERTEX_POINT ( 'NONE', #45 ) ;
#189 = CARTESIAN_POINT ( 'NONE',  ( 2.793185071074506684E-14, 0.5499999999999963807, 8.000000000000000000 ) ) ;
#190 = DIRECTION ( 'NONE',  ( -3.491481338843133355E-15, 1.224646799147353207E-16, -1.000000000000000000 ) ) ;
#191 = CC_DESIGN_SECURITY_CLASSIFICATION ( #8, ( #81 ) ) ;
#192 =( NAMED_UNIT ( * ) PLANE_ANGLE_UNIT ( ) SI_UNIT ( $, .RADIAN. ) );
#193 = PERSON_AND_ORGANIZATION ( #173, #62 ) ;
#194 = PRODUCT ( '41502', '41502', '', ( #80 ) ) ;
#195 = EDGE_CURVE ( 'NONE', #96, #96, #131, .T. ) ;
#196 = DATE_AND_TIME ( #82, #203 ) ;
#197 = ADVANCED_FACE ( 'NONE', ( #157, #140 ), #155, .T. ) ;
#198 = AXIS2_PLACEMENT_3D ( 'NONE', #61, #78, #94 ) ;
#199 = FACE_OUTER_BOUND ( 'NONE', #185, .T. ) ;
#200 = ADVANCED_FACE ( 'NONE', ( #15 ), #109, .T. ) ;
#201 = PLANE ( 'NONE',  #164 ) ;
#202 = EDGE_LOOP ( 'NONE', ( #37 ) ) ;
#203 = LOCAL_TIME ( 10, 24, 57.00000000000000000, #68 ) ;
ENDSEC;
END-ISO-10303-21;
