ISO-10303-21;
HEADER;
FILE_DESCRIPTION (( 'STEP AP203' ),
    '1' );
FILE_NAME ('41501.step',
    '2021-09-03T07:22:12',
    ( '' ),
    ( '' ),
    'SwSTEP 2.0',
    'SolidWorks 2019',
    '' );
FILE_SCHEMA (( 'CONFIG_CONTROL_DESIGN' ));
ENDSEC;

DATA;
#1 = VERTEX_POINT ( 'NONE', #94 ) ;
#2 = VERTEX_POINT ( 'NONE', #235 ) ;
#3 = DIRECTION ( 'NONE',  ( 4.275831445896958607E-31, 1.000000000000000000, 1.224646799147353207E-16 ) ) ;
#4 = PERSON_AND_ORGANIZATION ( #252, #163 ) ;
#5 = EDGE_CURVE ( 'NONE', #9, #1, #24, .T. ) ;
#6 = CC_DESIGN_APPROVAL ( #118, ( #56 ) ) ;
#7 = CYLINDRICAL_SURFACE ( 'NONE', #201, 1.474999999999995426 ) ;
#8 = DIRECTION ( 'NONE',  ( 4.275831445896958607E-31, 1.000000000000000000, 1.224646799147353207E-16 ) ) ;
#9 = VERTEX_POINT ( 'NONE', #265 ) ;
#10 = FACE_OUTER_BOUND ( 'NONE', #194, .T. ) ;
#11 = AXIS2_PLACEMENT_3D ( 'NONE', #246, #193, #242 ) ;
#12 = PLANE ( 'NONE',  #215 ) ;
#13 = CC_DESIGN_PERSON_AND_ORGANIZATION_ASSIGNMENT ( #253, #304, ( #314 ) ) ;
#14 = ORIENTED_EDGE ( 'NONE', *, *, #212, .F. ) ;
#15 = CC_DESIGN_PERSON_AND_ORGANIZATION_ASSIGNMENT ( #4, #18, ( #78 ) ) ;
#16 = DIRECTION ( 'NONE',  ( -3.491481338843133355E-15, 1.224646799147353207E-16, -1.000000000000000000 ) ) ;
#17 = VECTOR ( 'NONE', #324, 1000.000000000000000 ) ;
#18 = PERSON_AND_ORGANIZATION_ROLE ( 'creator' ) ;
#19 = PERSON_AND_ORGANIZATION ( #252, #163 ) ;
#20 = EDGE_CURVE ( 'NONE', #158, #100, #179, .T. ) ;
#21 = ORIENTED_EDGE ( 'NONE', *, *, #227, .T. ) ;
#22 = DIRECTION ( 'NONE',  ( 0.0000000000000000000, 1.000000000000000000, 0.0000000000000000000 ) ) ;
#23 = SECURITY_CLASSIFICATION_LEVEL ( 'unclassified' ) ;
#24 = CIRCLE ( 'NONE', #115, 1.174999999999997602 ) ;
#25 = PERSON_AND_ORGANIZATION_ROLE ( 'design_owner' ) ;
#26 = ORIENTED_EDGE ( 'NONE', *, *, #93, .F. ) ;
#27 = CALENDAR_DATE ( 2021, 3, 9 ) ;
#28 = EDGE_CURVE ( 'NONE', #131, #37, #206, .T. ) ;
#29 = APPROVAL_STATUS ( 'not_yet_approved' ) ;
#30 = DIRECTION ( 'NONE',  ( -3.491481338843133355E-15, 1.224646799147353207E-16, -1.000000000000000000 ) ) ;
#31 = CARTESIAN_POINT ( 'NONE',  ( 4.189777606611760026E-14, 1.106072839713112870E-32, 12.00000000000000000 ) ) ;
#32 = APPLICATION_CONTEXT ( 'configuration controlled 3d designs of mechanical parts and assemblies' ) ;
#33 = VECTOR ( 'NONE', #260, 1000.000000000000000 ) ;
#34 = VERTEX_POINT ( 'NONE', #284 ) ;
#35 = LINE ( 'NONE', #149, #111 ) ;
#36 = EDGE_LOOP ( 'NONE', ( #243, #274, #189 ) ) ;
#37 = VERTEX_POINT ( 'NONE', #192 ) ;
#38 = DIRECTION ( 'NONE',  ( 1.798245827342160317E-15, -0.8571673007021098911, 0.5150380749100582634 ) ) ;
#39 = CALENDAR_DATE ( 2021, 3, 9 ) ;
#40 = SHAPE_DEFINITION_REPRESENTATION ( #73, #169 ) ;
#41 = CARTESIAN_POINT ( 'NONE',  ( 3.094393116906195217E-15, -1.085366999893059300E-16, 0.8862694130656562086 ) ) ;
#42 = VECTOR ( 'NONE', #85, 1000.000000000000114 ) ;
#43 = DIRECTION ( 'NONE',  ( 3.491481338843133355E-15, -1.224646799147353207E-16, 1.000000000000000000 ) ) ;
#44 = DIRECTION ( 'NONE',  ( 3.491481338843133355E-15, -1.224646799147353207E-16, 1.000000000000000000 ) ) ;
#45 = FACE_OUTER_BOUND ( 'NONE', #232, .T. ) ;
#46 = EDGE_CURVE ( 'NONE', #1, #9, #263, .T. ) ;
#47 = LINE ( 'NONE', #120, #17 ) ;
#48 = ORIENTED_EDGE ( 'NONE', *, *, #185, .F. ) ;
#49 = AXIS2_PLACEMENT_3D ( 'NONE', #79, #16, #297 ) ;
#50 = LOCAL_TIME ( 9, 22, 12.00000000000000000, #203 ) ;
#51 = ORIENTED_EDGE ( 'NONE', *, *, #20, .F. ) ;
#52 = ORIENTED_EDGE ( 'NONE', *, *, #76, .T. ) ;
#53 = ADVANCED_FACE ( 'NONE', ( #326 ), #281, .T. ) ;
#54 = APPROVAL_STATUS ( 'not_yet_approved' ) ;
#55 = CARTESIAN_POINT ( 'NONE',  ( 1.806354028742334215E-16, -1.474999999999995426, -1.806354028742346541E-16 ) ) ;
#56 = SECURITY_CLASSIFICATION ( '', '', #23 ) ;
#57 = MANIFOLD_SOLID_BREP ( 'Corps-Déplacer/Copier1[2]', #244 ) ;
#58 = COORDINATED_UNIVERSAL_TIME_OFFSET ( 1, 0, .AHEAD. ) ;
#59 = DIRECTION ( 'NONE',  ( -3.491481338843133355E-15, 1.224646799147353207E-16, -1.000000000000000000 ) ) ;
#60 = ORIENTED_EDGE ( 'NONE', *, *, #122, .T. ) ;
#61 = AXIS2_PLACEMENT_3D ( 'NONE', #67, #216, #170 ) ;
#62 = PRODUCT_RELATED_PRODUCT_CATEGORY ( 'detail', '', ( #141 ) ) ;
#63 = ORIENTED_EDGE ( 'NONE', *, *, #81, .F. ) ;
#64 = CARTESIAN_POINT ( 'NONE',  ( 4.189777606611760026E-14, 1.474999999999991651, 12.00000000000000000 ) ) ;
#65 = DIRECTION ( 'NONE',  ( -3.491481338843133355E-15, 1.224646799147353207E-16, -1.000000000000000000 ) ) ;
#66 = DIRECTION ( 'NONE',  ( 0.0000000000000000000, 1.000000000000000000, 0.0000000000000000000 ) ) ;
#67 = CARTESIAN_POINT ( 'NONE',  ( 4.189777606611760026E-14, -1.469576158976823947E-15, 12.00000000000000000 ) ) ;
#68 = AXIS2_PLACEMENT_3D ( 'NONE', #168, #71, #211 ) ;
#69 = ORIENTED_EDGE ( 'NONE', *, *, #5, .F. ) ;
#70 = CYLINDRICAL_SURFACE ( 'NONE', #11, 1.474999999999995426 ) ;
#71 = DIRECTION ( 'NONE',  ( -3.491481338843133355E-15, 1.224646799147353207E-16, -1.000000000000000000 ) ) ;
#72 = DIRECTION ( 'NONE',  ( -3.491481338843133355E-15, 1.224646799147353207E-16, -1.000000000000000000 ) ) ;
#73 = PRODUCT_DEFINITION_SHAPE ( 'NONE', 'NONE',  #314 ) ;
#74 = EDGE_LOOP ( 'NONE', ( #116, #173, #231, #222 ) ) ;
#75 = DIRECTION ( 'NONE',  ( 3.491481338843133355E-15, -1.224646799147353207E-16, 1.000000000000000000 ) ) ;
#76 = EDGE_CURVE ( 'NONE', #138, #37, #239, .T. ) ;
#77 = VECTOR ( 'NONE', #313, 1000.000000000000000 ) ;
#78 = PRODUCT_DEFINITION_FORMATION_WITH_SPECIFIED_SOURCE ( 'ANY', '', #141, .NOT_KNOWN. ) ;
#79 = CARTESIAN_POINT ( 'NONE',  ( 0.0000000000000000000, 0.0000000000000000000, 0.0000000000000000000 ) ) ;
#80 = AXIS2_PLACEMENT_3D ( 'NONE', #83, #251, #22 ) ;
#81 = EDGE_CURVE ( 'NONE', #9, #2, #47, .T. ) ;
#82 = AXIS2_PLACEMENT_3D ( 'NONE', #181, #298, #276 ) ;
#83 = CARTESIAN_POINT ( 'NONE',  ( 1.606081415867841091E-13, -5.633375276077824704E-15, 46.00000000000000000 ) ) ;
#84 = ORIENTED_EDGE ( 'NONE', *, *, #110, .T. ) ;
#85 = DIRECTION ( 'NONE',  ( -2.382254525458724175E-15, -0.7071067811865451302, -0.7071067811865499042 ) ) ;
#86 = EDGE_CURVE ( 'NONE', #34, #2, #107, .T. ) ;
#87 = DIRECTION ( 'NONE',  ( -3.491481338843133355E-15, 1.224646799147353207E-16, -1.000000000000000000 ) ) ;
#88 = PERSON_AND_ORGANIZATION_ROLE ( 'design_supplier' ) ;
#89 = CONICAL_SURFACE ( 'NONE', #157, 1.174999999999997602, 0.7853981633974450594 ) ;
#90 = LOCAL_TIME ( 9, 22, 12.00000000000000000, #58 ) ;
#91 = DIRECTION ( 'NONE',  ( 0.0000000000000000000, 1.000000000000000000, 0.0000000000000000000 ) ) ;
#92 = APPROVAL_ROLE ( '' ) ;
#93 = EDGE_CURVE ( 'NONE', #100, #158, #287, .T. ) ;
#94 = CARTESIAN_POINT ( 'NONE',  ( 1.602466850868446581E-13, -1.175000000000003375, 46.00000000000000000 ) ) ;
#95 = PLANE ( 'NONE',  #97 ) ;
#96 = CONICAL_SURFACE ( 'NONE', #80, 1.174999999999997602, 0.7853981633974450594 ) ;
#97 = AXIS2_PLACEMENT_3D ( 'NONE', #128, #220, #174 ) ;
#98 = PLANE ( 'NONE',  #208 ) ;
#99 = LOCAL_TIME ( 9, 22, 12.00000000000000000, #283 ) ;
#100 = VERTEX_POINT ( 'NONE', #311 ) ;
#101 = FACE_OUTER_BOUND ( 'NONE', #225, .T. ) ;
#102 = ADVANCED_FACE ( 'NONE', ( #186 ), #166, .T. ) ;
#103 = CARTESIAN_POINT ( 'NONE',  ( 1.595606971851311880E-13, -5.596635872103403844E-15, 45.69999999999999574 ) ) ;
#104 = ORIENTED_EDGE ( 'NONE', *, *, #5, .T. ) ;
#105 = APPROVAL_DATE_TIME ( #278, #146 ) ;
#106 = CARTESIAN_POINT ( 'NONE',  ( 6.306851382697994195E-31, 1.474999999999995426, 1.806354028742340378E-16 ) ) ;
#107 = CIRCLE ( 'NONE', #294, 1.474999999999997424 ) ;
#108 = CC_DESIGN_APPROVAL ( #146, ( #314 ) ) ;
#109 = CALENDAR_DATE ( 2021, 3, 9 ) ;
#110 = EDGE_CURVE ( 'NONE', #2, #34, #132, .T. ) ;
#111 = VECTOR ( 'NONE', #241, 1000.000000000000000 ) ;
#112 = DIRECTION ( 'NONE',  ( 0.0000000000000000000, 1.000000000000000000, 0.0000000000000000000 ) ) ;
#113 = DIRECTION ( 'NONE',  ( 0.0000000000000000000, 1.000000000000000000, 0.0000000000000000000 ) ) ;
#114 = FACE_OUTER_BOUND ( 'NONE', #126, .T. ) ;
#115 = AXIS2_PLACEMENT_3D ( 'NONE', #209, #87, #91 ) ;
#116 = ORIENTED_EDGE ( 'NONE', *, *, #185, .T. ) ;
#117 = CARTESIAN_POINT ( 'NONE',  ( 0.0000000000000000000, 0.0000000000000000000, 0.0000000000000000000 ) ) ;
#118 = APPROVAL ( #29, 'UNSPECIFIED' ) ;
#119 = CARTESIAN_POINT ( 'NONE',  ( 3.275028519780429797E-15, 1.474999999999991651, 0.8862694130656564306 ) ) ;
#120 = CARTESIAN_POINT ( 'NONE',  ( 1.606081415867841091E-13, 1.174999999999992051, 46.00000000000000000 ) ) ;
#121 = AXIS2_PLACEMENT_3D ( 'NONE', #257, #226, #3 ) ;
#122 = EDGE_CURVE ( 'NONE', #37, #332, #195, .T. ) ;
#123 = DIRECTION ( 'NONE',  ( 0.0000000000000000000, 1.000000000000000000, 0.0000000000000000000 ) ) ;
#124 = VERTEX_POINT ( 'NONE', #139 ) ;
#125 =( LENGTH_UNIT ( ) NAMED_UNIT ( * ) SI_UNIT ( .MILLI., .METRE. ) );
#126 = EDGE_LOOP ( 'NONE', ( #69, #310 ) ) ;
#127 = AXIS2_PLACEMENT_3D ( 'NONE', #41, #44, #172 ) ;
#128 = CARTESIAN_POINT ( 'NONE',  ( 1.606081415867841091E-13, 8.811088723138312180E-33, 46.00000000000000000 ) ) ;
#129 = CC_DESIGN_DATE_AND_TIME_ASSIGNMENT ( #160, #199, ( #314 ) ) ;
#130 =( NAMED_UNIT ( * ) SI_UNIT ( $, .STERADIAN. ) SOLID_ANGLE_UNIT ( ) );
#131 = VERTEX_POINT ( 'NONE', #64 ) ;
#132 = CIRCLE ( 'NONE', #162, 1.474999999999997424 ) ;
#133 = APPROVAL_STATUS ( 'not_yet_approved' ) ;
#134 = DIRECTION ( 'NONE',  ( 5.222860866134905450E-31, 1.000000000000000000, 1.470104640658319136E-16 ) ) ;
#135 = ORIENTED_EDGE ( 'NONE', *, *, #272, .F. ) ;
#136 = COORDINATED_UNIVERSAL_TIME_OFFSET ( 1, 0, .AHEAD. ) ;
#137 = LINE ( 'NONE', #55, #147 ) ;
#138 = VERTEX_POINT ( 'NONE', #117 ) ;
#139 = CARTESIAN_POINT ( 'NONE',  ( 2.267671999438611378E-14, -1.474999999999994760, 12.00000000000000000 ) ) ;
#140 = APPROVAL_DATE_TIME ( #259, #118 ) ;
#141 = PRODUCT ( '41501', '41501', '', ( #279 ) ) ;
#142 = APPROVAL ( #54, 'UNSPECIFIED' ) ;
#143 = EDGE_LOOP ( 'NONE', ( #250, #240, #177, #14 ) ) ;
#144 = LINE ( 'NONE', #288, #214 ) ;
#145 = DIRECTION ( 'NONE',  ( 5.222860866134905450E-31, 1.000000000000000000, 1.470104640658319136E-16 ) ) ;
#146 = APPROVAL ( #133, 'UNSPECIFIED' ) ;
#147 = VECTOR ( 'NONE', #312, 1000.000000000000000 ) ;
#148 = DATE_TIME_ROLE ( 'classification_date' ) ;
#149 = CARTESIAN_POINT ( 'NONE',  ( 1.806354028742330764E-16, -1.474999999999992539, -1.806354028742343090E-16 ) ) ;
#150 = ORIENTED_EDGE ( 'NONE', *, *, #217, .T. ) ;
#151 = CARTESIAN_POINT ( 'NONE',  ( 3.094393116906194823E-15, -1.474999999999992095, 0.8862694130656559865 ) ) ;
#152 = AXIS2_PLACEMENT_3D ( 'NONE', #207, #270, #145 ) ;
#153 = APPROVAL_PERSON_ORGANIZATION ( #329, #118, #316 ) ;
#154 = ORIENTED_EDGE ( 'NONE', *, *, #110, .F. ) ;
#155 = ADVANCED_FACE ( 'NONE', ( #190 ), #331, .T. ) ;
#156 = EDGE_CURVE ( 'NONE', #124, #332, #35, .T. ) ;
#157 = AXIS2_PLACEMENT_3D ( 'NONE', #234, #65, #113 ) ;
#158 = VERTEX_POINT ( 'NONE', #191 ) ;
#159 = DIRECTION ( 'NONE',  ( 0.0000000000000000000, 1.000000000000000000, 0.0000000000000000000 ) ) ;
#160 = DATE_AND_TIME ( #335, #333 ) ;
#161 = CARTESIAN_POINT ( 'NONE',  ( 4.189777606611760026E-14, -1.469576158976823947E-15, 12.00000000000000000 ) ) ;
#162 = AXIS2_PLACEMENT_3D ( 'NONE', #103, #198, #66 ) ;
#163 = ORGANIZATION ( 'UNSPECIFIED', 'UNSPECIFIED', '' ) ;
#164 = PERSON_AND_ORGANIZATION ( #252, #163 ) ;
#165 = DIRECTION ( 'NONE',  ( -3.491481338843133355E-15, 1.224646799147353207E-16, -1.000000000000000000 ) ) ;
#166 = CYLINDRICAL_SURFACE ( 'NONE', #49, 1.474999999999992539 ) ;
#167 = CARTESIAN_POINT ( 'NONE',  ( 4.189777606611760026E-14, -1.469576158976823947E-15, 12.00000000000000000 ) ) ;
#168 = CARTESIAN_POINT ( 'NONE',  ( 1.606081415867841091E-13, -5.633375276077824704E-15, 46.00000000000000000 ) ) ;
#169 = ADVANCED_BREP_SHAPE_REPRESENTATION ( '41501', ( #269, #57, #82 ), #295 ) ;
#170 = DIRECTION ( 'NONE',  ( 0.0000000000000000000, 1.000000000000000000, 0.0000000000000000000 ) ) ;
#171 = ORIENTED_EDGE ( 'NONE', *, *, #46, .T. ) ;
#172 = DIRECTION ( 'NONE',  ( -5.222860866134905450E-31, -1.000000000000000000, -1.470104640658319136E-16 ) ) ;
#173 = ORIENTED_EDGE ( 'NONE', *, *, #156, .T. ) ;
#174 = DIRECTION ( 'NONE',  ( 4.275831445896958607E-31, 1.000000000000000000, 1.224646799147353207E-16 ) ) ;
#175 = CC_DESIGN_PERSON_AND_ORGANIZATION_ASSIGNMENT ( #309, #261, ( #56 ) ) ;
#176 = PERSON_AND_ORGANIZATION ( #252, #163 ) ;
#177 = ORIENTED_EDGE ( 'NONE', *, *, #28, .T. ) ;
#178 = COORDINATED_UNIVERSAL_TIME_OFFSET ( 1, 0, .AHEAD. ) ;
#179 = CIRCLE ( 'NONE', #290, 1.474999999999993205 ) ;
#180 =( NAMED_UNIT ( * ) PLANE_ANGLE_UNIT ( ) SI_UNIT ( $, .RADIAN. ) );
#181 = CARTESIAN_POINT ( 'NONE',  ( 0.0000000000000000000, 0.0000000000000000000, 0.0000000000000000000 ) ) ;
#182 = FACE_OUTER_BOUND ( 'NONE', #321, .T. ) ;
#183 = ADVANCED_FACE ( 'NONE', ( #230 ), #89, .T. ) ;
#184 = CARTESIAN_POINT ( 'NONE',  ( 4.189777606611760026E-14, -1.469576158976823947E-15, 12.00000000000000000 ) ) ;
#185 = EDGE_CURVE ( 'NONE', #131, #124, #188, .T. ) ;
#186 = FACE_OUTER_BOUND ( 'NONE', #143, .T. ) ;
#187 = DIRECTION ( 'NONE',  ( -4.275831445896958607E-31, -1.000000000000000000, -1.224646799147353207E-16 ) ) ;
#188 = CIRCLE ( 'NONE', #266, 1.474999999999993205 ) ;
#189 = ORIENTED_EDGE ( 'NONE', *, *, #212, .T. ) ;
#190 = FACE_OUTER_BOUND ( 'NONE', #36, .T. ) ;
#191 = CARTESIAN_POINT ( 'NONE',  ( 4.189777606611760026E-14, 1.474999999999991651, 12.00000000000000000 ) ) ;
#192 = CARTESIAN_POINT ( 'NONE',  ( 3.275028519780429797E-15, 1.474999999999991651, 0.8862694130656564306 ) ) ;
#193 = DIRECTION ( 'NONE',  ( -3.491481338843133355E-15, 1.224646799147353207E-16, -1.000000000000000000 ) ) ;
#194 = EDGE_LOOP ( 'NONE', ( #48, #223 ) ) ;
#195 = CIRCLE ( 'NONE', #152, 1.474999999999991873 ) ;
#196 = APPROVAL_PERSON_ORGANIZATION ( #176, #142, #92 ) ;
#197 = ORIENTED_EDGE ( 'NONE', *, *, #86, .F. ) ;
#198 = DIRECTION ( 'NONE',  ( -3.491481338843133355E-15, 1.224646799147353207E-16, -1.000000000000000000 ) ) ;
#199 = DATE_TIME_ROLE ( 'creation_date' ) ;
#200 = APPLICATION_PROTOCOL_DEFINITION ( 'international standard', 'config_control_design', 1994, #248 ) ;
#201 = AXIS2_PLACEMENT_3D ( 'NONE', #285, #236, #8 ) ;
#202 = LINE ( 'NONE', #308, #42 ) ;
#203 = COORDINATED_UNIVERSAL_TIME_OFFSET ( 1, 0, .AHEAD. ) ;
#204 = EDGE_LOOP ( 'NONE', ( #135, #52, #60 ) ) ;
#205 = PERSON_AND_ORGANIZATION ( #252, #163 ) ;
#206 = LINE ( 'NONE', #317, #77 ) ;
#207 = CARTESIAN_POINT ( 'NONE',  ( 3.094393116906195217E-15, -1.085366999893059300E-16, 0.8862694130656562086 ) ) ;
#208 = AXIS2_PLACEMENT_3D ( 'NONE', #293, #75, #213 ) ;
#209 = CARTESIAN_POINT ( 'NONE',  ( 1.606081415867841091E-13, -5.633375276077824704E-15, 46.00000000000000000 ) ) ;
#210 = ORIENTED_EDGE ( 'NONE', *, *, #81, .T. ) ;
#211 = DIRECTION ( 'NONE',  ( 0.0000000000000000000, 1.000000000000000000, 0.0000000000000000000 ) ) ;
#212 = EDGE_CURVE ( 'NONE', #332, #37, #224, .T. ) ;
#213 = DIRECTION ( 'NONE',  ( -4.275831445896958607E-31, -1.000000000000000000, -1.224646799147353207E-16 ) ) ;
#214 = VECTOR ( 'NONE', #38, 1000.000000000000000 ) ;
#215 = AXIS2_PLACEMENT_3D ( 'NONE', #31, #233, #187 ) ;
#216 = DIRECTION ( 'NONE',  ( -3.491481338843133355E-15, 1.224646799147353207E-16, -1.000000000000000000 ) ) ;
#217 = EDGE_CURVE ( 'NONE', #2, #158, #254, .T. ) ;
#218 = ORIENTED_EDGE ( 'NONE', *, *, #217, .F. ) ;
#219 = CC_DESIGN_SECURITY_CLASSIFICATION ( #56, ( #78 ) ) ;
#220 = DIRECTION ( 'NONE',  ( -3.491481338843133355E-15, 1.224646799147353207E-16, -1.000000000000000000 ) ) ;
#221 = DIRECTION ( 'NONE',  ( -3.491481338843133355E-15, 1.224646799147353207E-16, -1.000000000000000000 ) ) ;
#222 = ORIENTED_EDGE ( 'NONE', *, *, #28, .F. ) ;
#223 = ORIENTED_EDGE ( 'NONE', *, *, #262, .F. ) ;
#224 = CIRCLE ( 'NONE', #323, 1.474999999999991873 ) ;
#225 = EDGE_LOOP ( 'NONE', ( #277, #273 ) ) ;
#226 = DIRECTION ( 'NONE',  ( -3.491481338843133355E-15, 1.224646799147353207E-16, -1.000000000000000000 ) ) ;
#227 = EDGE_CURVE ( 'NONE', #34, #100, #137, .T. ) ;
#228 = ORIENTED_EDGE ( 'NONE', *, *, #86, .T. ) ;
#229 = FACE_OUTER_BOUND ( 'NONE', #319, .T. ) ;
#230 = FACE_OUTER_BOUND ( 'NONE', #282, .T. ) ;
#231 = ORIENTED_EDGE ( 'NONE', *, *, #122, .F. ) ;
#232 = EDGE_LOOP ( 'NONE', ( #84, #21, #51, #218 ) ) ;
#233 = DIRECTION ( 'NONE',  ( 3.491481338843133355E-15, -1.224646799147353207E-16, 1.000000000000000000 ) ) ;
#234 = CARTESIAN_POINT ( 'NONE',  ( 1.606081415867841091E-13, -5.633375276077824704E-15, 46.00000000000000000 ) ) ;
#235 = CARTESIAN_POINT ( 'NONE',  ( 1.595606971851311880E-13, 1.474999999999991651, 45.69999999999999574 ) ) ;
#236 = DIRECTION ( 'NONE',  ( -3.491481338843133355E-15, 1.224646799147353207E-16, -1.000000000000000000 ) ) ;
#237 = AXIS2_PLACEMENT_3D ( 'NONE', #267, #43, #315 ) ;
#238 = ADVANCED_FACE ( 'NONE', ( #182 ), #96, .T. ) ;
#239 = LINE ( 'NONE', #119, #256 ) ;
#240 = ORIENTED_EDGE ( 'NONE', *, *, #262, .T. ) ;
#241 = DIRECTION ( 'NONE',  ( -3.491481338843133355E-15, 1.224646799147353207E-16, -1.000000000000000000 ) ) ;
#242 = DIRECTION ( 'NONE',  ( 4.275831445896958607E-31, 1.000000000000000000, 1.224646799147353207E-16 ) ) ;
#243 = ORIENTED_EDGE ( 'NONE', *, *, #76, .F. ) ;
#244 = CLOSED_SHELL ( 'NONE', ( #268, #53, #155, #102, #301 ) ) ;
#245 = CARTESIAN_POINT ( 'NONE',  ( 1.595606971851311880E-13, -5.596635872103403844E-15, 45.69999999999999574 ) ) ;
#246 = CARTESIAN_POINT ( 'NONE',  ( 0.0000000000000000000, 0.0000000000000000000, 0.0000000000000000000 ) ) ;
#247 = EDGE_CURVE ( 'NONE', #1, #34, #202, .T. ) ;
#248 = APPLICATION_CONTEXT ( 'configuration controlled 3d designs of mechanical parts and assemblies' ) ;
#249 = DATE_AND_TIME ( #39, #303 ) ;
#250 = ORIENTED_EDGE ( 'NONE', *, *, #156, .F. ) ;
#251 = DIRECTION ( 'NONE',  ( -3.491481338843133355E-15, 1.224646799147353207E-16, -1.000000000000000000 ) ) ;
#252 = PERSON ( 'UNSPECIFIED', 'UNSPECIFIED', 'UNSPECIFIED', ('UNSPECIFIED'), ('UNSPECIFIED'), ('UNSPECIFIED') ) ;
#253 = PERSON_AND_ORGANIZATION ( #252, #163 ) ;
#254 = LINE ( 'NONE', #106, #33 ) ;
#255 = APPROVAL_DATE_TIME ( #306, #142 ) ;
#256 = VECTOR ( 'NONE', #271, 999.9999999999998863 ) ;
#257 = CARTESIAN_POINT ( 'NONE',  ( 0.0000000000000000000, 0.0000000000000000000, 0.0000000000000000000 ) ) ;
#258 = CC_DESIGN_PERSON_AND_ORGANIZATION_ASSIGNMENT ( #205, #25, ( #141 ) ) ;
#259 = DATE_AND_TIME ( #109, #50 ) ;
#260 = DIRECTION ( 'NONE',  ( -3.491481338843133355E-15, 1.224646799147353207E-16, -1.000000000000000000 ) ) ;
#261 = PERSON_AND_ORGANIZATION_ROLE ( 'classification_officer' ) ;
#262 = EDGE_CURVE ( 'NONE', #124, #131, #275, .T. ) ;
#263 = CIRCLE ( 'NONE', #68, 1.174999999999997602 ) ;
#264 = APPROVAL_PERSON_ORGANIZATION ( #164, #146, #337 ) ;
#265 = CARTESIAN_POINT ( 'NONE',  ( 1.606081415867841091E-13, 1.174999999999992051, 46.00000000000000000 ) ) ;
#266 = AXIS2_PLACEMENT_3D ( 'NONE', #167, #221, #296 ) ;
#267 = CARTESIAN_POINT ( 'NONE',  ( 3.094393116906195217E-15, -1.085366999893059300E-16, 0.8862694130656562086 ) ) ;
#268 = ADVANCED_FACE ( 'NONE', ( #305 ), #280, .T. ) ;
#269 = MANIFOLD_SOLID_BREP ( 'Corps-Déplacer/Copier1[1]', #318 ) ;
#270 = DIRECTION ( 'NONE',  ( -3.491481338843133355E-15, 1.224646799147353207E-16, -1.000000000000000000 ) ) ;
#271 = DIRECTION ( 'NONE',  ( 1.903218546456022717E-15, 0.8571673007021097801, 0.5150380749100585964 ) ) ;
#272 = EDGE_CURVE ( 'NONE', #138, #332, #144, .T. ) ;
#273 = ORIENTED_EDGE ( 'NONE', *, *, #93, .T. ) ;
#274 = ORIENTED_EDGE ( 'NONE', *, *, #272, .T. ) ;
#275 = CIRCLE ( 'NONE', #302, 1.474999999999993205 ) ;
#276 = DIRECTION ( 'NONE',  ( 1.000000000000000000, 0.0000000000000000000, 0.0000000000000000000 ) ) ;
#277 = ORIENTED_EDGE ( 'NONE', *, *, #20, .T. ) ;
#278 = DATE_AND_TIME ( #27, #90 ) ;
#279 = MECHANICAL_CONTEXT ( 'NONE', #32, 'mechanical' ) ;
#280 = CYLINDRICAL_SURFACE ( 'NONE', #121, 1.474999999999992539 ) ;
#281 = CONICAL_SURFACE ( 'NONE', #127, 1.474999999999991873, 1.029744258676649649 ) ;
#282 = EDGE_LOOP ( 'NONE', ( #104, #336, #154, #63 ) ) ;
#283 = COORDINATED_UNIVERSAL_TIME_OFFSET ( 1, 0, .AHEAD. ) ;
#284 = CARTESIAN_POINT ( 'NONE',  ( 1.009098720284984587E-13, -1.475000000000003197, 45.69999999999999574 ) ) ;
#285 = CARTESIAN_POINT ( 'NONE',  ( 0.0000000000000000000, 0.0000000000000000000, 0.0000000000000000000 ) ) ;
#286 = CC_DESIGN_DATE_AND_TIME_ASSIGNMENT ( #249, #148, ( #56 ) ) ;
#287 = CIRCLE ( 'NONE', #61, 1.474999999999993205 ) ;
#288 = CARTESIAN_POINT ( 'NONE',  ( 3.094393116906194823E-15, -1.474999999999992095, 0.8862694130656559865 ) ) ;
#289 = CC_DESIGN_PERSON_AND_ORGANIZATION_ASSIGNMENT ( #19, #88, ( #78 ) ) ;
#290 = AXIS2_PLACEMENT_3D ( 'NONE', #184, #30, #112 ) ;
#291 = DESIGN_CONTEXT ( 'detailed design', #248, 'design' ) ;
#292 = ORIENTED_EDGE ( 'NONE', *, *, #247, .F. ) ;
#293 = CARTESIAN_POINT ( 'NONE',  ( 4.189777606611760026E-14, 1.106072839713112870E-32, 12.00000000000000000 ) ) ;
#294 = AXIS2_PLACEMENT_3D ( 'NONE', #245, #72, #123 ) ;
#295 =( GEOMETRIC_REPRESENTATION_CONTEXT ( 3 ) GLOBAL_UNCERTAINTY_ASSIGNED_CONTEXT ( ( #328 ) ) GLOBAL_UNIT_ASSIGNED_CONTEXT ( ( #125, #180, #130 ) ) REPRESENTATION_CONTEXT ( 'NONE', 'WORKASPACE' ) );
#296 = DIRECTION ( 'NONE',  ( 0.0000000000000000000, 1.000000000000000000, 0.0000000000000000000 ) ) ;
#297 = DIRECTION ( 'NONE',  ( 4.275831445896958607E-31, 1.000000000000000000, 1.224646799147353207E-16 ) ) ;
#298 = DIRECTION ( 'NONE',  ( 0.0000000000000000000, 0.0000000000000000000, 1.000000000000000000 ) ) ;
#299 = APPLICATION_PROTOCOL_DEFINITION ( 'international standard', 'config_control_design', 1994, #32 ) ;
#300 = CARTESIAN_POINT ( 'NONE',  ( 3.094393116906195217E-15, -1.085366999893059300E-16, 0.8862694130656562086 ) ) ;
#301 = ADVANCED_FACE ( 'NONE', ( #10 ), #12, .T. ) ;
#302 = AXIS2_PLACEMENT_3D ( 'NONE', #161, #59, #159 ) ;
#303 = LOCAL_TIME ( 9, 22, 12.00000000000000000, #178 ) ;
#304 = PERSON_AND_ORGANIZATION_ROLE ( 'creator' ) ;
#305 = FACE_OUTER_BOUND ( 'NONE', #74, .T. ) ;
#306 = DATE_AND_TIME ( #322, #99 ) ;
#307 = ADVANCED_FACE ( 'NONE', ( #229 ), #7, .T. ) ;
#308 = CARTESIAN_POINT ( 'NONE',  ( 1.607520375856839374E-13, -1.175000000000003375, 46.00000000000000000 ) ) ;
#309 = PERSON_AND_ORGANIZATION ( #252, #163 ) ;
#310 = ORIENTED_EDGE ( 'NONE', *, *, #46, .F. ) ;
#311 = CARTESIAN_POINT ( 'NONE',  ( 1.009098720284985849E-13, -1.474999999999994760, 12.00000000000000000 ) ) ;
#312 = DIRECTION ( 'NONE',  ( -3.491481338843133355E-15, 1.224646799147353207E-16, -1.000000000000000000 ) ) ;
#313 = DIRECTION ( 'NONE',  ( -3.491481338843133355E-15, 1.224646799147353207E-16, -1.000000000000000000 ) ) ;
#314 = PRODUCT_DEFINITION ( 'UNKNOWN', '', #78, #291 ) ;
#315 = DIRECTION ( 'NONE',  ( -5.222860866134905450E-31, -1.000000000000000000, -1.470104640658319136E-16 ) ) ;
#316 = APPROVAL_ROLE ( '' ) ;
#317 = CARTESIAN_POINT ( 'NONE',  ( 6.306851382697981934E-31, 1.474999999999992539, 1.806354028742336927E-16 ) ) ;
#318 = CLOSED_SHELL ( 'NONE', ( #183, #327, #334, #307, #238, #325 ) ) ;
#319 = EDGE_LOOP ( 'NONE', ( #330, #228, #150, #26 ) ) ;
#320 = CC_DESIGN_APPROVAL ( #142, ( #78 ) ) ;
#321 = EDGE_LOOP ( 'NONE', ( #292, #171, #210, #197 ) ) ;
#322 = CALENDAR_DATE ( 2021, 3, 9 ) ;
#323 = AXIS2_PLACEMENT_3D ( 'NONE', #300, #165, #134 ) ;
#324 = DIRECTION ( 'NONE',  ( -2.468850131082272838E-15, 0.7071067811865453523, -0.7071067811865496822 ) ) ;
#325 = ADVANCED_FACE ( 'NONE', ( #114 ), #95, .F. ) ;
#326 = FACE_OUTER_BOUND ( 'NONE', #204, .T. ) ;
#327 = ADVANCED_FACE ( 'NONE', ( #45 ), #70, .T. ) ;
#328 = UNCERTAINTY_MEASURE_WITH_UNIT (LENGTH_MEASURE( 1.000000000000000082E-05 ), #125, 'distance_accuracy_value', 'NONE');
#329 = PERSON_AND_ORGANIZATION ( #252, #163 ) ;
#330 = ORIENTED_EDGE ( 'NONE', *, *, #227, .F. ) ;
#331 = CONICAL_SURFACE ( 'NONE', #237, 1.474999999999991873, 1.029744258676649649 ) ;
#332 = VERTEX_POINT ( 'NONE', #151 ) ;
#333 = LOCAL_TIME ( 9, 22, 12.00000000000000000, #136 ) ;
#334 = ADVANCED_FACE ( 'NONE', ( #101 ), #98, .F. ) ;
#335 = CALENDAR_DATE ( 2021, 3, 9 ) ;
#336 = ORIENTED_EDGE ( 'NONE', *, *, #247, .T. ) ;
#337 = APPROVAL_ROLE ( '' ) ;
ENDSEC;
END-ISO-10303-21;
