ISO-10303-21;
HEADER;
FILE_DESCRIPTION (( 'STEP AP203' ),
    '1' );
FILE_NAME ('41471.step',
    '2024-04-04T13:40:57',
    ( '' ),
    ( '' ),
    'SwSTEP 2.0',
    'SolidWorks 2022',
    '' );
FILE_SCHEMA (( 'CONFIG_CONTROL_DESIGN' ));
ENDSEC;

DATA;
#1 = ORIENTED_EDGE ( 'NONE', *, *, #20, .T. ) ;
#2 = VECTOR ( 'NONE', #268, 1000.000000000000000 ) ;
#3 = FACE_OUTER_BOUND ( 'NONE', #338, .T. ) ;
#4 = APPROVAL_PERSON_ORGANIZATION ( #60, #63, #316 ) ;
#5 = COORDINATED_UNIVERSAL_TIME_OFFSET ( 1, 0, .AHEAD. ) ;
#6 = ORIENTED_EDGE ( 'NONE', *, *, #247, .T. ) ;
#7 = SECURITY_CLASSIFICATION_LEVEL ( 'unclassified' ) ;
#8 = LINE ( 'NONE', #285, #234 ) ;
#9 = DATE_AND_TIME ( #32, #27 ) ;
#10 = AXIS2_PLACEMENT_3D ( 'NONE', #174, #116, #206 ) ;
#11 = ADVANCED_FACE ( 'NONE', ( #3 ), #34, .T. ) ;
#12 = LINE ( 'NONE', #235, #136 ) ;
#13 = CARTESIAN_POINT ( 'NONE',  ( 8.379555213223520053E-14, 0.000000000000000000, 24.00000000000000000 ) ) ;
#14 = LINE ( 'NONE', #269, #126 ) ;
#15 = AXIS2_PLACEMENT_3D ( 'NONE', #76, #104, #152 ) ;
#16 = CARTESIAN_POINT ( 'NONE',  ( 8.379555213223520053E-14, -2.939152317953647894E-15, 24.00000000000000000 ) ) ;
#17 = PLANE ( 'NONE',  #354 ) ;
#18 = CARTESIAN_POINT ( 'NONE',  ( 9.620620753268159930E-31, 4.950000000000000178, 2.755455298081545271E-16 ) ) ;
#19 = LINE ( 'NONE', #275, #108 ) ;
#20 = EDGE_CURVE ( 'NONE', #343, #341, #62, .T. ) ;
#21 = DIRECTION ( 'NONE',  ( 3.491481338843133355E-15, -0.000000000000000000, 1.000000000000000000 ) ) ;
#22 = FACE_OUTER_BOUND ( 'NONE', #106, .T. ) ;
#23 = CC_DESIGN_DATE_AND_TIME_ASSIGNMENT ( #39, #165, ( #282 ) ) ;
#24 = PERSON ( 'UNSPECIFIED', 'UNSPECIFIED', 'UNSPECIFIED', ('UNSPECIFIED'), ('UNSPECIFIED'), ('UNSPECIFIED') ) ;
#25 = CONICAL_SURFACE ( 'NONE', #186, 4.950000000000000178, 0.3450620389298282853 ) ;
#26 = DIRECTION ( 'NONE',  ( 0.000000000000000000, 1.000000000000000000, 0.000000000000000000 ) ) ;
#27 = LOCAL_TIME ( 15, 40, 57.00000000000000000, #5 ) ;
#28 = ORIENTED_EDGE ( 'NONE', *, *, #90, .T. ) ;
#29 = COORDINATED_UNIVERSAL_TIME_OFFSET ( 1, 0, .AHEAD. ) ;
#30 = ORIENTED_EDGE ( 'NONE', *, *, #224, .F. ) ;
#31 = ORIENTED_EDGE ( 'NONE', *, *, #182, .F. ) ;
#32 = CALENDAR_DATE ( 2024, 4, 4 ) ;
#33 = AXIS2_PLACEMENT_3D ( 'NONE', #56, #21, #156 ) ;
#34 = CYLINDRICAL_SURFACE ( 'NONE', #304, 4.999999999999999112 ) ;
#35 = EDGE_CURVE ( 'NONE', #219, #343, #310, .T. ) ;
#36 = CC_DESIGN_SECURITY_CLASSIFICATION ( #81, ( #88 ) ) ;
#37 = CALENDAR_DATE ( 2024, 4, 4 ) ;
#38 = ORIENTED_EDGE ( 'NONE', *, *, #84, .T. ) ;
#39 = DATE_AND_TIME ( #198, #120 ) ;
#40 = VERTEX_POINT ( 'NONE', #68 ) ;
#41 = ADVANCED_FACE ( 'NONE', ( #289 ), #93, .T. ) ;
#42 = DIRECTION ( 'NONE',  ( 3.491481338843133355E-15, -0.000000000000000000, 1.000000000000000000 ) ) ;
#43 = CONICAL_SURFACE ( 'NONE', #228, 4.999999999999999112, 0.7853981633974426169 ) ;
#44 = CIRCLE ( 'NONE', #10, 4.999999999999993783 ) ;
#45 = FACE_OUTER_BOUND ( 'NONE', #356, .T. ) ;
#46 = CARTESIAN_POINT ( 'NONE',  ( 8.379555213223520053E-14, 4.949999999999997513, 24.00000000000000000 ) ) ;
#47 = CC_DESIGN_DATE_AND_TIME_ASSIGNMENT ( #9, #64, ( #81 ) ) ;
#48 = AXIS2_PLACEMENT_3D ( 'NONE', #335, #79, #185 ) ;
#49 = CARTESIAN_POINT ( 'NONE',  ( 2.513866563967056016E-13, -8.817456953860941711E-15, 72.00000000000000000 ) ) ;
#50 = VERTEX_POINT ( 'NONE', #146 ) ;
#51 = CLOSED_SHELL ( 'NONE', ( #216, #299, #197, #277 ) ) ;
#52 = CIRCLE ( 'NONE', #131, 4.950000000000000178 ) ;
#53 = FACE_OUTER_BOUND ( 'NONE', #244, .T. ) ;
#54 = ORIENTED_EDGE ( 'NONE', *, *, #322, .F. ) ;
#55 = DIRECTION ( 'NONE',  ( 3.491481338843133355E-15, -0.000000000000000000, 1.000000000000000000 ) ) ;
#56 = CARTESIAN_POINT ( 'NONE',  ( 0.000000000000000000, 0.000000000000000000, 0.000000000000000000 ) ) ;
#57 = VERTEX_POINT ( 'NONE', #169 ) ;
#58 = APPROVAL ( #141, 'UNSPECIFIED' ) ;
#59 = CIRCLE ( 'NONE', #222, 4.950000000000000178 ) ;
#60 = PERSON_AND_ORGANIZATION ( #24, #350 ) ;
#61 = PERSON_AND_ORGANIZATION_ROLE ( 'design_supplier' ) ;
#62 = LINE ( 'NONE', #65, #143 ) ;
#63 = APPROVAL ( #256, 'UNSPECIFIED' ) ;
#64 = DATE_TIME_ROLE ( 'classification_date' ) ;
#65 = CARTESIAN_POINT ( 'NONE',  ( 2.137915722948478778E-30, 4.999999999999999112, 6.123233995736765296E-16 ) ) ;
#66 = CALENDAR_DATE ( 2024, 4, 4 ) ;
#67 = AXIS2_PLACEMENT_3D ( 'NONE', #264, #127, #125 ) ;
#68 = CARTESIAN_POINT ( 'NONE',  ( 4.950000000000081890, 0.000000000000000000, 23.99999999999998224 ) ) ;
#69 = COORDINATED_UNIVERSAL_TIME_OFFSET ( 1, 0, .AHEAD. ) ;
#70 = DIRECTION ( 'NONE',  ( -3.491481338843133355E-15, 1.224646799147353207E-16, -1.000000000000000000 ) ) ;
#71 = EDGE_CURVE ( 'NONE', #145, #40, #8, .T. ) ;
#72 = ORIENTED_EDGE ( 'NONE', *, *, #134, .F. ) ;
#73 = CARTESIAN_POINT ( 'NONE',  ( 6.123233995736743603E-16, -4.999999999999999112, -6.123233995736786004E-16 ) ) ;
#74 = CARTESIAN_POINT ( 'NONE',  ( -4.949999999999914024, 6.062001655779396539E-16, 24.00000000000001776 ) ) ;
#75 = DIRECTION ( 'NONE',  ( 3.491481338843133355E-15, -1.224646799147353207E-16, 1.000000000000000000 ) ) ;
#76 = CARTESIAN_POINT ( 'NONE',  ( 0.000000000000000000, 0.000000000000000000, 0.000000000000000000 ) ) ;
#77 = DIRECTION ( 'NONE',  ( 3.491481338843133355E-15, -1.224646799147353207E-16, 1.000000000000000000 ) ) ;
#78 = ORIENTED_EDGE ( 'NONE', *, *, #209, .T. ) ;
#79 = DIRECTION ( 'NONE',  ( 0.000000000000000000, 0.000000000000000000, 1.000000000000000000 ) ) ;
#80 = CIRCLE ( 'NONE', #213, 4.000000000000009770 ) ;
#81 = SECURITY_CLASSIFICATION ( '', '', #7 ) ;
#82 = DIRECTION ( 'NONE',  ( 0.000000000000000000, 1.000000000000000000, 0.000000000000000000 ) ) ;
#83 =( NAMED_UNIT ( * ) SI_UNIT ( $, .STERADIAN. ) SOLID_ANGLE_UNIT ( ) );
#84 = EDGE_CURVE ( 'NONE', #341, #149, #44, .T. ) ;
#85 = ORIENTED_EDGE ( 'NONE', *, *, #247, .F. ) ;
#86 = PERSON_AND_ORGANIZATION ( #24, #350 ) ;
#87 = AXIS2_PLACEMENT_3D ( 'NONE', #358, #363, #111 ) ;
#88 = PRODUCT_DEFINITION_FORMATION_WITH_SPECIFIED_SOURCE ( 'ANY', '', #273, .NOT_KNOWN. ) ;
#89 = ORIENTED_EDGE ( 'NONE', *, *, #71, .T. ) ;
#90 = EDGE_CURVE ( 'NONE', #50, #343, #12, .T. ) ;
#91 = DATE_AND_TIME ( #261, #292 ) ;
#92 = EDGE_LOOP ( 'NONE', ( #78, #133 ) ) ;
#93 = PLANE ( 'NONE',  #325 ) ;
#94 = EDGE_CURVE ( 'NONE', #226, #50, #345, .T. ) ;
#95 = LOCAL_TIME ( 15, 40, 57.00000000000000000, #29 ) ;
#96 = DIRECTION ( 'NONE',  ( -3.491481338843133355E-15, 1.224646799147353207E-16, -1.000000000000000000 ) ) ;
#97 = ORIENTED_EDGE ( 'NONE', *, *, #271, .F. ) ;
#98 = FACE_OUTER_BOUND ( 'NONE', #321, .T. ) ;
#99 = CARTESIAN_POINT ( 'NONE',  ( 1.667005269775435144E-13, -5.000000000000007994, 71.00000000000000000 ) ) ;
#100 = AXIS2_PLACEMENT_3D ( 'NONE', #167, #315, #142 ) ;
#101 = EDGE_CURVE ( 'NONE', #203, #115, #59, .T. ) ;
#102 = DIRECTION ( 'NONE',  ( 0.000000000000000000, 1.000000000000000000, 0.000000000000000000 ) ) ;
#103 = DIRECTION ( 'NONE',  ( -2.468850131082279149E-15, 0.7071067811865435759, -0.7071067811865513475 ) ) ;
#104 = DIRECTION ( 'NONE',  ( 3.491481338843133355E-15, -0.000000000000000000, 1.000000000000000000 ) ) ;
#105 = AXIS2_PLACEMENT_3D ( 'NONE', #272, #161, #160 ) ;
#106 = EDGE_LOOP ( 'NONE', ( #317, #301, #121, #334 ) ) ;
#107 = CARTESIAN_POINT ( 'NONE',  ( 8.428123209807730998E-14, 4.999999999999991118, 24.13910427085457044 ) ) ;
#108 = VECTOR ( 'NONE', #135, 1000.000000000000227 ) ;
#109 = ADVANCED_FACE ( 'NONE', ( #328 ), #43, .T. ) ;
#110 = CARTESIAN_POINT ( 'NONE',  ( 2.501920067869003115E-13, -4.000000000000018652, 72.00000000000000000 ) ) ;
#111 = DIRECTION ( 'NONE',  ( 0.000000000000000000, -1.000000000000000000, 0.000000000000000000 ) ) ;
#112 = ORIENTED_EDGE ( 'NONE', *, *, #260, .F. ) ;
#113 = EDGE_LOOP ( 'NONE', ( #85, #140 ) ) ;
#114 = VECTOR ( 'NONE', #298, 1000.000000000000000 ) ;
#115 = VERTEX_POINT ( 'NONE', #129 ) ;
#116 = DIRECTION ( 'NONE',  ( -3.491481338843133355E-15, 1.224646799147353207E-16, -1.000000000000000000 ) ) ;
#117 = ORIENTED_EDGE ( 'NONE', *, *, #94, .T. ) ;
#118 = EDGE_CURVE ( 'NONE', #57, #145, #331, .T. ) ;
#119 = COORDINATED_UNIVERSAL_TIME_OFFSET ( 1, 0, .AHEAD. ) ;
#120 = LOCAL_TIME ( 15, 40, 57.00000000000000000, #288 ) ;
#121 = ORIENTED_EDGE ( 'NONE', *, *, #348, .F. ) ;
#122 = DIRECTION ( 'NONE',  ( 3.491481338843133355E-15, -1.224646799147353207E-16, 1.000000000000000000 ) ) ;
#123 = CARTESIAN_POINT ( 'NONE',  ( 8.379555213223520053E-14, 0.000000000000000000, 24.00000000000000000 ) ) ;
#124 = ADVANCED_FACE ( 'NONE', ( #45 ), #153, .T. ) ;
#125 = DIRECTION ( 'NONE',  ( 1.000000000000000000, 0.000000000000000000, -3.504491870660218137E-15 ) ) ;
#126 = VECTOR ( 'NONE', #42, 1000.000000000000000 ) ;
#127 = DIRECTION ( 'NONE',  ( 3.491481338843133355E-15, -0.000000000000000000, 1.000000000000000000 ) ) ;
#128 = ADVANCED_FACE ( 'NONE', ( #98 ), #25, .T. ) ;
#129 = CARTESIAN_POINT ( 'NONE',  ( 8.464765389773206325E-14, 4.949999999999997513, 24.00000000000000000 ) ) ;
#130 = DIRECTION ( 'NONE',  ( -3.491481338843133355E-15, 1.224646799147349263E-16, -1.000000000000000000 ) ) ;
#131 = AXIS2_PLACEMENT_3D ( 'NONE', #352, #351, #102 ) ;
#132 = DIRECTION ( 'NONE',  ( -3.491481338843133355E-15, 1.224646799147349263E-16, -1.000000000000000000 ) ) ;
#133 = ORIENTED_EDGE ( 'NONE', *, *, #134, .T. ) ;
#134 = EDGE_CURVE ( 'NONE', #221, #40, #297, .T. ) ;
#135 = DIRECTION ( 'NONE',  ( 3.327098416510778143E-15, 0.3382550599108904987, 0.9410544694355793549 ) ) ;
#136 = VECTOR ( 'NONE', #103, 1000.000000000000114 ) ;
#137 = DIRECTION ( 'NONE',  ( 3.491481338843133355E-15, -1.224646799147353207E-16, 1.000000000000000000 ) ) ;
#138 = EDGE_CURVE ( 'NONE', #57, #221, #14, .T. ) ;
#139 = APPROVAL_DATE_TIME ( #281, #63 ) ;
#140 = ORIENTED_EDGE ( 'NONE', *, *, #118, .F. ) ;
#141 = APPROVAL_STATUS ( 'not_yet_approved' ) ;
#142 = DIRECTION ( 'NONE',  ( -1.598721155460225103E-14, -1.000000000000000000, 0.000000000000000000 ) ) ;
#143 = VECTOR ( 'NONE', #96, 1000.000000000000000 ) ;
#144 = APPROVAL_ROLE ( '' ) ;
#145 = VERTEX_POINT ( 'NONE', #180 ) ;
#146 = CARTESIAN_POINT ( 'NONE',  ( 2.496409157272839907E-13, 4.000000000000000888, 72.00000000000000000 ) ) ;
#147 = PRODUCT_RELATED_PRODUCT_CATEGORY ( 'detail', '', ( #273 ) ) ;
#148 = APPLICATION_PROTOCOL_DEFINITION ( 'international standard', 'config_control_design', 1994, #357 ) ;
#149 = VERTEX_POINT ( 'NONE', #327 ) ;
#150 = CIRCLE ( 'NONE', #33, 4.950000000000000178 ) ;
#151 = CARTESIAN_POINT ( 'NONE',  ( 8.403839211515624894E-14, -4.950000000000002842, 24.00000000000000000 ) ) ;
#152 = DIRECTION ( 'NONE',  ( 1.000000000000000000, 0.000000000000000000, -3.491481338843133355E-15 ) ) ;
#153 = CYLINDRICAL_SURFACE ( 'NONE', #191, 4.999999999999999112 ) ;
#154 = LINE ( 'NONE', #73, #2 ) ;
#155 = CARTESIAN_POINT ( 'NONE',  ( 2.478951750578624304E-13, -8.694992273946206563E-15, 71.00000000000000000 ) ) ;
#156 = DIRECTION ( 'NONE',  ( 1.000000000000000000, 0.000000000000000000, -3.491481338843133355E-15 ) ) ;
#157 = LINE ( 'NONE', #278, #318 ) ;
#158 = ORIENTED_EDGE ( 'NONE', *, *, #138, .F. ) ;
#159 = AXIS2_PLACEMENT_3D ( 'NONE', #123, #233, #236 ) ;
#160 = DIRECTION ( 'NONE',  ( 1.000000000000000000, 0.000000000000000000, -3.504491870660216954E-15 ) ) ;
#161 = DIRECTION ( 'NONE',  ( 3.491481338843133355E-15, -0.000000000000000000, 1.000000000000000000 ) ) ;
#162 = ORIENTED_EDGE ( 'NONE', *, *, #322, .T. ) ;
#163 = APPROVAL ( #201, 'UNSPECIFIED' ) ;
#164 = AXIS2_PLACEMENT_3D ( 'NONE', #13, #324, #266 ) ;
#165 = DATE_TIME_ROLE ( 'creation_date' ) ;
#166 = PERSON_AND_ORGANIZATION ( #24, #350 ) ;
#167 = CARTESIAN_POINT ( 'NONE',  ( 2.478951750578624304E-13, -8.694992273946206563E-15, 71.00000000000000000 ) ) ;
#168 = MECHANICAL_CONTEXT ( 'NONE', #238, 'mechanical' ) ;
#169 = CARTESIAN_POINT ( 'NONE',  ( -4.950000000000000178, 6.062001655779450773E-16, 1.728283262727351642E-14 ) ) ;
#170 = AXIS2_PLACEMENT_3D ( 'NONE', #49, #122, #212 ) ;
#171 = ORIENTED_EDGE ( 'NONE', *, *, #204, .T. ) ;
#172 = APPROVAL_DATE_TIME ( #284, #58 ) ;
#173 = ADVANCED_BREP_SHAPE_REPRESENTATION ( '41471', ( #211, #208, #48 ), #200 ) ;
#174 = CARTESIAN_POINT ( 'NONE',  ( 8.428123209807730998E-14, -2.956187677958625236E-15, 24.13910427085457044 ) ) ;
#175 = ORIENTED_EDGE ( 'NONE', *, *, #138, .T. ) ;
#176 = AXIS2_PLACEMENT_3D ( 'NONE', #18, #55, #340 ) ;
#177 = FACE_OUTER_BOUND ( 'NONE', #346, .T. ) ;
#178 = CARTESIAN_POINT ( 'NONE',  ( 0.000000000000000000, 0.000000000000000000, 0.000000000000000000 ) ) ;
#179 = CARTESIAN_POINT ( 'NONE',  ( 2.513866563967056016E-13, -8.817456953860941711E-15, 72.00000000000000000 ) ) ;
#180 = CARTESIAN_POINT ( 'NONE',  ( 4.950000000000000178, 0.000000000000000000, -1.728283262727351011E-14 ) ) ;
#181 = CC_DESIGN_APPROVAL ( #58, ( #282 ) ) ;
#182 = EDGE_CURVE ( 'NONE', #50, #226, #80, .T. ) ;
#183 = CARTESIAN_POINT ( 'NONE',  ( 8.428123209807730998E-14, -2.956187677958625236E-15, 24.13910427085457044 ) ) ;
#184 = EDGE_CURVE ( 'NONE', #226, #219, #210, .T. ) ;
#185 = DIRECTION ( 'NONE',  ( 1.000000000000000000, 0.000000000000000000, 0.000000000000000000 ) ) ;
#186 = AXIS2_PLACEMENT_3D ( 'NONE', #332, #77, #205 ) ;
#187 = PLANE ( 'NONE',  #176 ) ;
#188 = EDGE_LOOP ( 'NONE', ( #241, #287 ) ) ;
#189 = CC_DESIGN_PERSON_AND_ORGANIZATION_ASSIGNMENT ( #314, #225, ( #88 ) ) ;
#190 = APPROVAL_ROLE ( '' ) ;
#191 = AXIS2_PLACEMENT_3D ( 'NONE', #178, #347, #207 ) ;
#192 = CIRCLE ( 'NONE', #67, 4.949999999999997513 ) ;
#193 = PERSON_AND_ORGANIZATION_ROLE ( 'design_owner' ) ;
#194 = ORIENTED_EDGE ( 'NONE', *, *, #35, .F. ) ;
#195 = APPROVAL_DATE_TIME ( #91, #163 ) ;
#196 = DIRECTION ( 'NONE',  ( 4.275831445896958607E-31, 1.000000000000000000, 1.224646799147353207E-16 ) ) ;
#197 = ADVANCED_FACE ( 'NONE', ( #329 ), #17, .F. ) ;
#198 = CALENDAR_DATE ( 2024, 4, 4 ) ;
#199 = ORIENTED_EDGE ( 'NONE', *, *, #182, .T. ) ;
#200 =( GEOMETRIC_REPRESENTATION_CONTEXT ( 3 ) GLOBAL_UNCERTAINTY_ASSIGNED_CONTEXT ( ( #270 ) ) GLOBAL_UNIT_ASSIGNED_CONTEXT ( ( #362, #339, #83 ) ) REPRESENTATION_CONTEXT ( 'NONE', 'WORKASPACE' ) );
#201 = APPROVAL_STATUS ( 'not_yet_approved' ) ;
#202 = DIRECTION ( 'NONE',  ( 3.491481338843133355E-15, -0.000000000000000000, 1.000000000000000000 ) ) ;
#203 = VERTEX_POINT ( 'NONE', #151 ) ;
#204 = EDGE_CURVE ( 'NONE', #219, #149, #154, .T. ) ;
#205 = DIRECTION ( 'NONE',  ( 0.000000000000000000, -1.000000000000000000, 0.000000000000000000 ) ) ;
#206 = DIRECTION ( 'NONE',  ( 0.000000000000000000, 1.000000000000000000, 0.000000000000000000 ) ) ;
#207 = DIRECTION ( 'NONE',  ( 4.275831445896958607E-31, 1.000000000000000000, 1.224646799147353207E-16 ) ) ;
#208 = MANIFOLD_SOLID_BREP ( 'Corps-Déplacer/Copier1[2]', #51 ) ;
#209 = EDGE_CURVE ( 'NONE', #40, #221, #192, .T. ) ;
#210 = LINE ( 'NONE', #349, #114 ) ;
#211 = MANIFOLD_SOLID_BREP ( 'Corps-Déplacer/Copier1[1]', #255 ) ;
#212 = DIRECTION ( 'NONE',  ( 0.000000000000000000, -1.000000000000000000, 0.000000000000000000 ) ) ;
#213 = AXIS2_PLACEMENT_3D ( 'NONE', #179, #75, #296 ) ;
#214 = CC_DESIGN_APPROVAL ( #163, ( #88 ) ) ;
#215 = DESIGN_CONTEXT ( 'detailed design', #357, 'design' ) ;
#216 = ADVANCED_FACE ( 'NONE', ( #177 ), #293, .T. ) ;
#217 = EDGE_LOOP ( 'NONE', ( #158, #360, #89, #72 ) ) ;
#218 = FACE_OUTER_BOUND ( 'NONE', #217, .T. ) ;
#219 = VERTEX_POINT ( 'NONE', #99 ) ;
#220 = ORIENTED_EDGE ( 'NONE', *, *, #260, .T. ) ;
#221 = VERTEX_POINT ( 'NONE', #74 ) ;
#222 = AXIS2_PLACEMENT_3D ( 'NONE', #16, #265, #232 ) ;
#223 = EDGE_LOOP ( 'NONE', ( #30, #162, #38, #112 ) ) ;
#224 = EDGE_CURVE ( 'NONE', #115, #203, #52, .T. ) ;
#225 = PERSON_AND_ORGANIZATION_ROLE ( 'creator' ) ;
#226 = VERTEX_POINT ( 'NONE', #110 ) ;
#227 = ORIENTED_EDGE ( 'NONE', *, *, #204, .F. ) ;
#228 = AXIS2_PLACEMENT_3D ( 'NONE', #155, #353, #295 ) ;
#229 = PERSON_AND_ORGANIZATION_ROLE ( 'creator' ) ;
#230 = ADVANCED_FACE ( 'NONE', ( #22 ), #263, .T. ) ;
#231 = ORIENTED_EDGE ( 'NONE', *, *, #35, .T. ) ;
#232 = DIRECTION ( 'NONE',  ( 0.000000000000000000, 1.000000000000000000, 0.000000000000000000 ) ) ;
#233 = DIRECTION ( 'NONE',  ( 3.491481338843133355E-15, -0.000000000000000000, 1.000000000000000000 ) ) ;
#234 = VECTOR ( 'NONE', #202, 1000.000000000000000 ) ;
#235 = CARTESIAN_POINT ( 'NONE',  ( 2.478951750578624304E-13, 4.999999999999990230, 71.00000000000000000 ) ) ;
#236 = DIRECTION ( 'NONE',  ( 1.000000000000000000, 0.000000000000000000, -3.504491870660216954E-15 ) ) ;
#237 = DIRECTION ( 'NONE',  ( -1.000000000000000000, 0.000000000000000000, 3.491481338843133355E-15 ) ) ;
#238 = APPLICATION_CONTEXT ( 'configuration controlled 3d designs of mechanical parts and assemblies' ) ;
#239 = CC_DESIGN_PERSON_AND_ORGANIZATION_ASSIGNMENT ( #258, #61, ( #88 ) ) ;
#240 = DIRECTION ( 'NONE',  ( -4.275831445896958607E-31, -1.000000000000000000, -1.224646799147353207E-16 ) ) ;
#241 = ORIENTED_EDGE ( 'NONE', *, *, #101, .T. ) ;
#242 = PRODUCT_DEFINITION_SHAPE ( 'NONE', 'NONE',  #282 ) ;
#243 = CARTESIAN_POINT ( 'NONE',  ( 2.478951750578624304E-13, -8.694992273946206563E-15, 71.00000000000000000 ) ) ;
#244 = EDGE_LOOP ( 'NONE', ( #199, #117 ) ) ;
#245 = DIRECTION ( 'NONE',  ( 1.687538997430237626E-14, -1.000000000000000000, 0.000000000000000000 ) ) ;
#246 = AXIS2_PLACEMENT_3D ( 'NONE', #183, #359, #26 ) ;
#247 = EDGE_CURVE ( 'NONE', #145, #57, #150, .T. ) ;
#248 = FACE_OUTER_BOUND ( 'NONE', #223, .T. ) ;
#249 = ORIENTED_EDGE ( 'NONE', *, *, #84, .F. ) ;
#250 = SHAPE_DEFINITION_REPRESENTATION ( #242, #173 ) ;
#251 = ORIENTED_EDGE ( 'NONE', *, *, #209, .F. ) ;
#252 = PERSON_AND_ORGANIZATION_ROLE ( 'classification_officer' ) ;
#253 = ORIENTED_EDGE ( 'NONE', *, *, #71, .F. ) ;
#254 = CC_DESIGN_PERSON_AND_ORGANIZATION_ASSIGNMENT ( #320, #229, ( #282 ) ) ;
#255 = CLOSED_SHELL ( 'NONE', ( #230, #326, #11, #41, #294, #124, #128, #109 ) ) ;
#256 = APPROVAL_STATUS ( 'not_yet_approved' ) ;
#257 = DIRECTION ( 'NONE',  ( 4.275831445896958607E-31, 1.000000000000000000, 1.224646799147353207E-16 ) ) ;
#258 = PERSON_AND_ORGANIZATION ( #24, #350 ) ;
#259 = DIRECTION ( 'NONE',  ( -3.491481338843133355E-15, 1.224646799147353207E-16, -1.000000000000000000 ) ) ;
#260 = EDGE_CURVE ( 'NONE', #203, #149, #157, .T. ) ;
#261 = CALENDAR_DATE ( 2024, 4, 4 ) ;
#262 = ORIENTED_EDGE ( 'NONE', *, *, #101, .F. ) ;
#263 = CONICAL_SURFACE ( 'NONE', #361, 4.999999999999999112, 0.7853981633974426169 ) ;
#264 = CARTESIAN_POINT ( 'NONE',  ( 8.379555213223520053E-14, 0.000000000000000000, 24.00000000000000000 ) ) ;
#265 = DIRECTION ( 'NONE',  ( -3.491481338843133355E-15, 1.224646799147353207E-16, -1.000000000000000000 ) ) ;
#266 = DIRECTION ( 'NONE',  ( 1.000000000000000000, 0.000000000000000000, -3.504491870660218137E-15 ) ) ;
#267 = CIRCLE ( 'NONE', #246, 4.999999999999993783 ) ;
#268 = DIRECTION ( 'NONE',  ( -3.491481338843133355E-15, 1.224646799147353207E-16, -1.000000000000000000 ) ) ;
#269 = CARTESIAN_POINT ( 'NONE',  ( -4.949999999999915801, 6.062001655779397525E-16, 24.00000000000001776 ) ) ;
#270 = UNCERTAINTY_MEASURE_WITH_UNIT (LENGTH_MEASURE( 1.000000000000000082E-05 ), #362, 'distance_accuracy_value', 'NONE');
#271 = EDGE_CURVE ( 'NONE', #149, #341, #267, .T. ) ;
#272 = CARTESIAN_POINT ( 'NONE',  ( 8.379555213223520053E-14, 0.000000000000000000, 24.00000000000000000 ) ) ;
#273 = PRODUCT ( '41471', '41471', '', ( #168 ) ) ;
#274 = PLANE ( 'NONE',  #286 ) ;
#275 = CARTESIAN_POINT ( 'NONE',  ( 8.440175229781314077E-14, 4.949999999999997513, 24.00000000000000000 ) ) ;
#276 = CARTESIAN_POINT ( 'NONE',  ( 2.513866563967056016E-13, -8.817456953860941711E-15, 72.00000000000000000 ) ) ;
#277 = ADVANCED_FACE ( 'NONE', ( #300 ), #187, .F. ) ;
#278 = CARTESIAN_POINT ( 'NONE',  ( 8.379555213223520053E-14, -4.950000000000002842, 24.00000000000000000 ) ) ;
#279 = CONICAL_SURFACE ( 'NONE', #87, 4.950000000000000178, 0.3450620389298282853 ) ;
#280 = APPROVAL_PERSON_ORGANIZATION ( #86, #163, #190 ) ;
#281 = DATE_AND_TIME ( #66, #319 ) ;
#282 = PRODUCT_DEFINITION ( 'UNKNOWN', '', #88, #215 ) ;
#283 = EDGE_LOOP ( 'NONE', ( #305, #31, #28, #194 ) ) ;
#284 = DATE_AND_TIME ( #37, #95 ) ;
#285 = CARTESIAN_POINT ( 'NONE',  ( 4.950000000000083666, 0.000000000000000000, 23.99999999999998224 ) ) ;
#286 = AXIS2_PLACEMENT_3D ( 'NONE', #276, #137, #240 ) ;
#287 = ORIENTED_EDGE ( 'NONE', *, *, #224, .T. ) ;
#288 = COORDINATED_UNIVERSAL_TIME_OFFSET ( 1, 0, .AHEAD. ) ;
#289 = FACE_OUTER_BOUND ( 'NONE', #188, .T. ) ;
#290 = DIRECTION ( 'NONE',  ( -3.491481338843133355E-15, 0.000000000000000000, -1.000000000000000000 ) ) ;
#291 = AXIS2_PLACEMENT_3D ( 'NONE', #243, #130, #245 ) ;
#292 = LOCAL_TIME ( 15, 40, 57.00000000000000000, #69 ) ;
#293 = CYLINDRICAL_SURFACE ( 'NONE', #159, 4.949999999999999289 ) ;
#294 = ADVANCED_FACE ( 'NONE', ( #53 ), #274, .T. ) ;
#295 = DIRECTION ( 'NONE',  ( 0.000000000000000000, 1.000000000000000000, 0.000000000000000000 ) ) ;
#296 = DIRECTION ( 'NONE',  ( 0.000000000000000000, -1.000000000000000000, 0.000000000000000000 ) ) ;
#297 = CIRCLE ( 'NONE', #164, 4.949999999999997513 ) ;
#298 = DIRECTION ( 'NONE',  ( -2.382254525458730486E-15, -0.7071067811865434649, -0.7071067811865516806 ) ) ;
#299 = ADVANCED_FACE ( 'NONE', ( #218 ), #306, .T. ) ;
#300 = FACE_OUTER_BOUND ( 'NONE', #113, .T. ) ;
#301 = ORIENTED_EDGE ( 'NONE', *, *, #184, .T. ) ;
#302 = CIRCLE ( 'NONE', #291, 4.999999999999999112 ) ;
#303 = DIRECTION ( 'NONE',  ( 3.285674118869251166E-15, -0.3382550599108907208, 0.9410544694355793549 ) ) ;
#304 = AXIS2_PLACEMENT_3D ( 'NONE', #313, #259, #257 ) ;
#305 = ORIENTED_EDGE ( 'NONE', *, *, #184, .F. ) ;
#306 = CYLINDRICAL_SURFACE ( 'NONE', #105, 4.949999999999999289 ) ;
#307 = CARTESIAN_POINT ( 'NONE',  ( 2.478951750578624304E-13, -8.694992273946206563E-15, 71.00000000000000000 ) ) ;
#308 = ORIENTED_EDGE ( 'NONE', *, *, #20, .F. ) ;
#309 = PERSON_AND_ORGANIZATION ( #24, #350 ) ;
#310 = CIRCLE ( 'NONE', #100, 4.999999999999999112 ) ;
#311 = CC_DESIGN_PERSON_AND_ORGANIZATION_ASSIGNMENT ( #309, #193, ( #273 ) ) ;
#312 = PERSON_AND_ORGANIZATION ( #24, #350 ) ;
#313 = CARTESIAN_POINT ( 'NONE',  ( 0.000000000000000000, 0.000000000000000000, 0.000000000000000000 ) ) ;
#314 = PERSON_AND_ORGANIZATION ( #24, #350 ) ;
#315 = DIRECTION ( 'NONE',  ( -3.491481338843133355E-15, 1.224646799147349263E-16, -1.000000000000000000 ) ) ;
#316 = APPROVAL_ROLE ( '' ) ;
#317 = ORIENTED_EDGE ( 'NONE', *, *, #94, .F. ) ;
#318 = VECTOR ( 'NONE', #303, 1000.000000000000000 ) ;
#319 = LOCAL_TIME ( 15, 40, 57.00000000000000000, #119 ) ;
#320 = PERSON_AND_ORGANIZATION ( #24, #350 ) ;
#321 = EDGE_LOOP ( 'NONE', ( #54, #262, #220, #344 ) ) ;
#322 = EDGE_CURVE ( 'NONE', #115, #341, #19, .T. ) ;
#323 = ORIENTED_EDGE ( 'NONE', *, *, #348, .T. ) ;
#324 = DIRECTION ( 'NONE',  ( 3.491481338843133355E-15, -0.000000000000000000, 1.000000000000000000 ) ) ;
#325 = AXIS2_PLACEMENT_3D ( 'NONE', #342, #70, #196 ) ;
#326 = ADVANCED_FACE ( 'NONE', ( #248 ), #279, .T. ) ;
#327 = CARTESIAN_POINT ( 'NONE',  ( 1.667005269775435144E-13, -4.999999999999996447, 24.13910427085457044 ) ) ;
#328 = FACE_OUTER_BOUND ( 'NONE', #283, .T. ) ;
#329 = FACE_OUTER_BOUND ( 'NONE', #92, .T. ) ;
#330 = CC_DESIGN_PERSON_AND_ORGANIZATION_ASSIGNMENT ( #166, #252, ( #81 ) ) ;
#331 = CIRCLE ( 'NONE', #15, 4.950000000000000178 ) ;
#332 = CARTESIAN_POINT ( 'NONE',  ( 8.379555213223520053E-14, -2.939152317953647894E-15, 24.00000000000000000 ) ) ;
#333 = APPLICATION_PROTOCOL_DEFINITION ( 'international standard', 'config_control_design', 1994, #238 ) ;
#334 = ORIENTED_EDGE ( 'NONE', *, *, #90, .F. ) ;
#335 = CARTESIAN_POINT ( 'NONE',  ( 0.000000000000000000, 0.000000000000000000, 0.000000000000000000 ) ) ;
#336 = APPROVAL_PERSON_ORGANIZATION ( #312, #58, #144 ) ;
#337 = CARTESIAN_POINT ( 'NONE',  ( 1.660882035779698891E-13, 4.999999999999990230, 71.00000000000000000 ) ) ;
#338 = EDGE_LOOP ( 'NONE', ( #323, #171, #249, #308 ) ) ;
#339 =( NAMED_UNIT ( * ) PLANE_ANGLE_UNIT ( ) SI_UNIT ( $, .RADIAN. ) );
#340 = DIRECTION ( 'NONE',  ( 1.000000000000000000, 0.000000000000000000, -3.491481338843133355E-15 ) ) ;
#341 = VERTEX_POINT ( 'NONE', #107 ) ;
#342 = CARTESIAN_POINT ( 'NONE',  ( 8.379555213223520053E-14, 4.949999999999997513, 24.00000000000000000 ) ) ;
#343 = VERTEX_POINT ( 'NONE', #337 ) ;
#344 = ORIENTED_EDGE ( 'NONE', *, *, #271, .T. ) ;
#345 = CIRCLE ( 'NONE', #170, 4.000000000000009770 ) ;
#346 = EDGE_LOOP ( 'NONE', ( #6, #175, #251, #253 ) ) ;
#347 = DIRECTION ( 'NONE',  ( -3.491481338843133355E-15, 1.224646799147353207E-16, -1.000000000000000000 ) ) ;
#348 = EDGE_CURVE ( 'NONE', #343, #219, #302, .T. ) ;
#349 = CARTESIAN_POINT ( 'NONE',  ( 2.485074984574361313E-13, -5.000000000000007994, 71.00000000000000000 ) ) ;
#350 = ORGANIZATION ( 'UNSPECIFIED', 'UNSPECIFIED', '' ) ;
#351 = DIRECTION ( 'NONE',  ( -3.491481338843133355E-15, 1.224646799147353207E-16, -1.000000000000000000 ) ) ;
#352 = CARTESIAN_POINT ( 'NONE',  ( 8.379555213223520053E-14, -2.939152317953647894E-15, 24.00000000000000000 ) ) ;
#353 = DIRECTION ( 'NONE',  ( -3.491481338843133355E-15, 1.224646799147349263E-16, -1.000000000000000000 ) ) ;
#354 = AXIS2_PLACEMENT_3D ( 'NONE', #46, #290, #237 ) ;
#355 = CC_DESIGN_APPROVAL ( #63, ( #81 ) ) ;
#356 = EDGE_LOOP ( 'NONE', ( #227, #231, #1, #97 ) ) ;
#357 = APPLICATION_CONTEXT ( 'configuration controlled 3d designs of mechanical parts and assemblies' ) ;
#358 = CARTESIAN_POINT ( 'NONE',  ( 8.379555213223520053E-14, -2.939152317953647894E-15, 24.00000000000000000 ) ) ;
#359 = DIRECTION ( 'NONE',  ( -3.491481338843133355E-15, 1.224646799147353207E-16, -1.000000000000000000 ) ) ;
#360 = ORIENTED_EDGE ( 'NONE', *, *, #118, .T. ) ;
#361 = AXIS2_PLACEMENT_3D ( 'NONE', #307, #132, #82 ) ;
#362 =( LENGTH_UNIT ( ) NAMED_UNIT ( * ) SI_UNIT ( .MILLI., .METRE. ) );
#363 = DIRECTION ( 'NONE',  ( 3.491481338843133355E-15, -1.224646799147353207E-16, 1.000000000000000000 ) ) ;
ENDSEC;
END-ISO-10303-21;
