ISO-10303-21;
HEADER;
FILE_DESCRIPTION (( 'STEP AP203' ),
    '1' );
FILE_NAME ('41463.step',
    '2021-09-21T07:46:54',
    ( '' ),
    ( '' ),
    'SwSTEP 2.0',
    'SolidWorks 2019',
    '' );
FILE_SCHEMA (( 'CONFIG_CONTROL_DESIGN' ));
ENDSEC;

DATA;
#1 = CALENDAR_DATE ( 2021, 21, 9 ) ;
#2 = DIRECTION ( 'NONE',  ( -3.491481338843133355E-15, 1.224646799147353207E-16, -1.000000000000000000 ) ) ;
#3 = PRODUCT_DEFINITION_SHAPE ( 'NONE', 'NONE',  #84 ) ;
#4 = CC_DESIGN_APPROVAL ( #281, ( #276 ) ) ;
#5 = CARTESIAN_POINT ( 'NONE',  ( 2.565498867538175865E-30, 6.000000000000000888, 7.347880794884120722E-16 ) ) ;
#6 = DIRECTION ( 'NONE',  ( -3.491481338843133355E-15, 1.224646799147353207E-16, -1.000000000000000000 ) ) ;
#7 = CARTESIAN_POINT ( 'NONE',  ( 2.094888803305903048E-14, 8.673617379884136052E-16, 6.000000000000065725 ) ) ;
#8 = LOCAL_TIME ( 9, 46, 54.00000000000000000, #27 ) ;
#9 = ADVANCED_FACE ( 'NONE', ( #118 ), #196, .T. ) ;
#10 = AXIS2_PLACEMENT_3D ( 'NONE', #31, #32, #184 ) ;
#11 = MECHANICAL_CONTEXT ( 'NONE', #139, 'mechanical' ) ;
#12 = CIRCLE ( 'NONE', #136, 5.999999999999995559 ) ;
#13 = EDGE_CURVE ( 'NONE', #237, #235, #37, .T. ) ;
#14 = CARTESIAN_POINT ( 'NONE',  ( 2.094888803305902101E-14, -5.999999999999996447, 6.000000000000062172 ) ) ;
#15 = DIRECTION ( 'NONE',  ( 0.0000000000000000000, 1.000000000000000000, 0.0000000000000000000 ) ) ;
#16 = DIRECTION ( 'NONE',  ( 5.135813185032633029E-31, 1.000000000000000000, 1.445602896647340396E-16 ) ) ;
#17 = ADVANCED_FACE ( 'NONE', ( #120 ), #271, .T. ) ;
#18 = AXIS2_PLACEMENT_3D ( 'NONE', #144, #160, #202 ) ;
#19 = DIRECTION ( 'NONE',  ( 4.275831445896958607E-31, 1.000000000000000000, 1.224646799147353207E-16 ) ) ;
#20 = ORIENTED_EDGE ( 'NONE', *, *, #228, .F. ) ;
#21 = DATE_TIME_ROLE ( 'classification_date' ) ;
#22 = ORIENTED_EDGE ( 'NONE', *, *, #226, .F. ) ;
#23 = PERSON_AND_ORGANIZATION ( #143, #59 ) ;
#24 = ORIENTED_EDGE ( 'NONE', *, *, #159, .F. ) ;
#25 = VECTOR ( 'NONE', #201, 1000.000000000000000 ) ;
#26 = ORIENTED_EDGE ( 'NONE', *, *, #232, .T. ) ;
#27 = COORDINATED_UNIVERSAL_TIME_OFFSET ( 1, 0, .AHEAD. ) ;
#28 = CARTESIAN_POINT ( 'NONE',  ( 2.094888803305902417E-14, -7.347880794884197636E-16, 6.000000000000063061 ) ) ;
#29 = PERSON_AND_ORGANIZATION_ROLE ( 'classification_officer' ) ;
#30 = LINE ( 'NONE', #222, #137 ) ;
#31 = CARTESIAN_POINT ( 'NONE',  ( 0.0000000000000000000, 0.0000000000000000000, 0.0000000000000000000 ) ) ;
#32 = DIRECTION ( 'NONE',  ( -3.491481338843133355E-15, 1.224646799147353207E-16, -1.000000000000000000 ) ) ;
#33 = LINE ( 'NONE', #197, #265 ) ;
#34 = APPROVAL_PERSON_ORGANIZATION ( #209, #281, #230 ) ;
#35 = PERSON_AND_ORGANIZATION ( #143, #59 ) ;
#36 = DIRECTION ( 'NONE',  ( 0.0000000000000000000, 0.0000000000000000000, 1.000000000000000000 ) ) ;
#37 = CIRCLE ( 'NONE', #231, 6.000000000000006217 ) ;
#38 = CALENDAR_DATE ( 2021, 21, 9 ) ;
#39 = DIRECTION ( 'NONE',  ( -3.491481338843133355E-15, 1.224646799147353207E-16, -1.000000000000000000 ) ) ;
#40 = ORIENTED_EDGE ( 'NONE', *, *, #159, .T. ) ;
#41 = DATE_TIME_ROLE ( 'creation_date' ) ;
#42 = ORIENTED_EDGE ( 'NONE', *, *, #51, .T. ) ;
#43 = SECURITY_CLASSIFICATION_LEVEL ( 'unclassified' ) ;
#44 = EDGE_LOOP ( 'NONE', ( #24, #69 ) ) ;
#45 = ORIENTED_EDGE ( 'NONE', *, *, #186, .T. ) ;
#46 = ORIENTED_EDGE ( 'NONE', *, *, #183, .F. ) ;
#47 = DIRECTION ( 'NONE',  ( 2.468850131082279149E-15, -0.7071067811865435759, 0.7071067811865514585 ) ) ;
#48 = DIRECTION ( 'NONE',  ( 0.0000000000000000000, 1.000000000000000000, 0.0000000000000000000 ) ) ;
#49 = CARTESIAN_POINT ( 'NONE',  ( 7.347880794884095084E-16, -6.000000000000000888, -7.347880794884145374E-16 ) ) ;
#50 = FACE_OUTER_BOUND ( 'NONE', #242, .T. ) ;
#51 = EDGE_CURVE ( 'NONE', #235, #237, #149, .T. ) ;
#52 = DIRECTION ( 'NONE',  ( 0.0000000000000000000, 1.000000000000000000, 0.0000000000000000000 ) ) ;
#53 = CARTESIAN_POINT ( 'NONE',  ( 1.540108188547018453E-13, -6.000000000000016875, 81.79999999999999716 ) ) ;
#54 = CC_DESIGN_DATE_AND_TIME_ASSIGNMENT ( #282, #41, ( #84 ) ) ;
#55 = LOCAL_TIME ( 9, 46, 54.00000000000000000, #172 ) ;
#56 = CARTESIAN_POINT ( 'NONE',  ( 2.897929511239800811E-13, 4.799999999999996270, 83.00000000000000000 ) ) ;
#57 = APPROVAL ( #168, 'UNSPECIFIED' ) ;
#58 = COORDINATED_UNIVERSAL_TIME_OFFSET ( 1, 0, .AHEAD. ) ;
#59 = ORGANIZATION ( 'UNSPECIFIED', 'UNSPECIFIED', '' ) ;
#60 = AXIS2_PLACEMENT_3D ( 'NONE', #223, #225, #48 ) ;
#61 = PRODUCT_RELATED_PRODUCT_CATEGORY ( 'detail', '', ( #199 ) ) ;
#62 = ORIENTED_EDGE ( 'NONE', *, *, #272, .F. ) ;
#63 = CARTESIAN_POINT ( 'NONE',  ( 2.897929511239800811E-13, 3.599423478388447859E-32, 83.00000000000000000 ) ) ;
#64 = CARTESIAN_POINT ( 'NONE',  ( 2.856031735173682958E-13, 5.999999999999995559, 81.79999999999999716 ) ) ;
#65 = CARTESIAN_POINT ( 'NONE',  ( 2.897929511239800811E-13, 4.799999999999996270, 83.00000000000000000 ) ) ;
#66 = DIRECTION ( 'NONE',  ( -3.491481338843133355E-15, 1.224646799147353207E-16, -1.000000000000000000 ) ) ;
#67 = CONICAL_SURFACE ( 'NONE', #161, 5.999999999999995559, 0.7853981633974426169 ) ;
#68 = PERSON_AND_ORGANIZATION_ROLE ( 'design_supplier' ) ;
#69 = ORIENTED_EDGE ( 'NONE', *, *, #280, .F. ) ;
#70 = APPROVAL_DATE_TIME ( #174, #75 ) ;
#71 = ORIENTED_EDGE ( 'NONE', *, *, #232, .F. ) ;
#72 = CARTESIAN_POINT ( 'NONE',  ( 2.094888803305902417E-14, -7.347880794884197636E-16, 6.000000000000063061 ) ) ;
#73 = CIRCLE ( 'NONE', #155, 5.999999999999995559 ) ;
#74 = COORDINATED_UNIVERSAL_TIME_OFFSET ( 1, 0, .AHEAD. ) ;
#75 = APPROVAL ( #243, 'UNSPECIFIED' ) ;
#76 = FACE_OUTER_BOUND ( 'NONE', #89, .T. ) ;
#77 = DIRECTION ( 'NONE',  ( 3.491481338843133355E-15, -1.224646799147353207E-16, 1.000000000000000000 ) ) ;
#78 = DIRECTION ( 'NONE',  ( -3.491481338843133355E-15, 1.224646799147353207E-16, -1.000000000000000000 ) ) ;
#79 = CC_DESIGN_PERSON_AND_ORGANIZATION_ASSIGNMENT ( #157, #29, ( #273 ) ) ;
#80 = CIRCLE ( 'NONE', #127, 5.999999999999995559 ) ;
#81 = CARTESIAN_POINT ( 'NONE',  ( 2.094888803305902732E-14, 5.999999999999994671, 6.000000000000063949 ) ) ;
#82 = APPROVAL_PERSON_ORGANIZATION ( #23, #75, #117 ) ;
#83 = DIRECTION ( 'NONE',  ( 1.000000000000000000, 0.0000000000000000000, 0.0000000000000000000 ) ) ;
#84 = PRODUCT_DEFINITION ( 'UNKNOWN', '', #276, #221 ) ;
#85 = DIRECTION ( 'NONE',  ( -2.468850131082271655E-15, 0.7071067811865455743, -0.7071067811865493491 ) ) ;
#86 = AXIS2_PLACEMENT_3D ( 'NONE', #108, #189, #15 ) ;
#87 = ORIENTED_EDGE ( 'NONE', *, *, #51, .F. ) ;
#88 = CLOSED_SHELL ( 'NONE', ( #107, #147, #187 ) ) ;
#89 = EDGE_LOOP ( 'NONE', ( #91, #193, #173, #87 ) ) ;
#90 = ORIENTED_EDGE ( 'NONE', *, *, #103, .T. ) ;
#91 = ORIENTED_EDGE ( 'NONE', *, *, #103, .F. ) ;
#92 = VECTOR ( 'NONE', #47, 1000.000000000000000 ) ;
#93 = DIRECTION ( 'NONE',  ( -3.491481338843133355E-15, 1.224646799147353207E-16, -1.000000000000000000 ) ) ;
#94 = CARTESIAN_POINT ( 'NONE',  ( 0.0000000000000000000, 0.0000000000000000000, 0.0000000000000000000 ) ) ;
#95 = EDGE_CURVE ( 'NONE', #237, #215, #182, .T. ) ;
#96 = DIRECTION ( 'NONE',  ( -3.491481338843133355E-15, 1.224646799147353207E-16, -1.000000000000000000 ) ) ;
#97 = CARTESIAN_POINT ( 'NONE',  ( 2.856031735173682958E-13, -1.001761081702534806E-14, 81.79999999999999716 ) ) ;
#98 = FACE_OUTER_BOUND ( 'NONE', #44, .T. ) ;
#99 = MANIFOLD_SOLID_BREP ( 'Corps-Déplacer/Copier1[1]', #203 ) ;
#100 = ADVANCED_FACE ( 'NONE', ( #140 ), #162, .T. ) ;
#101 = CC_DESIGN_PERSON_AND_ORGANIZATION_ASSIGNMENT ( #191, #130, ( #199 ) ) ;
#102 = DIRECTION ( 'NONE',  ( 3.491481338843133355E-15, -1.224646799147353207E-16, 1.000000000000000000 ) ) ;
#103 = EDGE_CURVE ( 'NONE', #194, #235, #30, .T. ) ;
#104 = MANIFOLD_SOLID_BREP ( 'Corps-Déplacer/Copier1[2]', #88 ) ;
#105 = FACE_OUTER_BOUND ( 'NONE', #278, .T. ) ;
#106 = AXIS2_PLACEMENT_3D ( 'NONE', #7, #102, #227 ) ;
#107 = ADVANCED_FACE ( 'NONE', ( #266 ), #128, .T. ) ;
#108 = CARTESIAN_POINT ( 'NONE',  ( 2.897929511239800811E-13, -1.016456843292303150E-14, 83.00000000000000000 ) ) ;
#109 = CC_DESIGN_APPROVAL ( #75, ( #273 ) ) ;
#110 = ORIENTED_EDGE ( 'NONE', *, *, #228, .T. ) ;
#111 = CARTESIAN_POINT ( 'NONE',  ( 2.094888803305902417E-14, -7.347880794884197636E-16, 6.000000000000063061 ) ) ;
#112 = ORIENTED_EDGE ( 'NONE', *, *, #95, .F. ) ;
#113 = ADVANCED_FACE ( 'NONE', ( #76 ), #166, .T. ) ;
#114 = CC_DESIGN_DATE_AND_TIME_ASSIGNMENT ( #216, #21, ( #273 ) ) ;
#115 = SHAPE_DEFINITION_REPRESENTATION ( #3, #208 ) ;
#116 = ORIENTED_EDGE ( 'NONE', *, *, #95, .T. ) ;
#117 = APPROVAL_ROLE ( '' ) ;
#118 = FACE_OUTER_BOUND ( 'NONE', #152, .T. ) ;
#119 = APPROVAL_DATE_TIME ( #214, #281 ) ;
#120 = FACE_OUTER_BOUND ( 'NONE', #169, .T. ) ;
#121 = LINE ( 'NONE', #65, #145 ) ;
#122 = DIRECTION ( 'NONE',  ( -3.491481338843133355E-15, 1.224646799147353207E-16, -1.000000000000000000 ) ) ;
#123 = CARTESIAN_POINT ( 'NONE',  ( 2.897929511239800811E-13, -1.016456843292303150E-14, 83.00000000000000000 ) ) ;
#124 = CC_DESIGN_SECURITY_CLASSIFICATION ( #273, ( #276 ) ) ;
#125 = CARTESIAN_POINT ( 'NONE',  ( 1.540108188547019967E-13, -5.999999999999996447, 6.000000000000062172 ) ) ;
#126 = DIRECTION ( 'NONE',  ( -5.135813185032633029E-31, -1.000000000000000000, -1.445602896647340396E-16 ) ) ;
#127 = AXIS2_PLACEMENT_3D ( 'NONE', #163, #96, #179 ) ;
#128 = CONICAL_SURFACE ( 'NONE', #277, 5.999999999999995559, 0.7853981633974426169 ) ;
#129 = LOCAL_TIME ( 9, 46, 54.00000000000000000, #58 ) ;
#130 = PERSON_AND_ORGANIZATION_ROLE ( 'design_owner' ) ;
#131 = DIRECTION ( 'NONE',  ( 5.135813185032633029E-31, 1.000000000000000000, 1.445602896647340396E-16 ) ) ;
#132 = VERTEX_POINT ( 'NONE', #94 ) ;
#133 = CIRCLE ( 'NONE', #86, 4.800000000000006928 ) ;
#134 = EDGE_LOOP ( 'NONE', ( #156, #42, #116, #46 ) ) ;
#135 = ORIENTED_EDGE ( 'NONE', *, *, #262, .T. ) ;
#136 = AXIS2_PLACEMENT_3D ( 'NONE', #275, #39, #131 ) ;
#137 = VECTOR ( 'NONE', #142, 1000.000000000000000 ) ;
#138 = CARTESIAN_POINT ( 'NONE',  ( 2.094888803305902101E-14, -5.999999999999996447, 6.000000000000062172 ) ) ;
#139 = APPLICATION_CONTEXT ( 'configuration controlled 3d designs of mechanical parts and assemblies' ) ;
#140 = FACE_OUTER_BOUND ( 'NONE', #134, .T. ) ;
#141 = AXIS2_PLACEMENT_3D ( 'NONE', #167, #248, #52 ) ;
#142 = DIRECTION ( 'NONE',  ( -2.382254525458723780E-15, -0.7071067811865453523, -0.7071067811865496822 ) ) ;
#143 = PERSON ( 'UNSPECIFIED', 'UNSPECIFIED', 'UNSPECIFIED', ('UNSPECIFIED'), ('UNSPECIFIED'), ('UNSPECIFIED') ) ;
#144 = CARTESIAN_POINT ( 'NONE',  ( 2.094888803305903048E-14, 8.673617379884136052E-16, 6.000000000000065725 ) ) ;
#145 = VECTOR ( 'NONE', #85, 1000.000000000000114 ) ;
#146 =( NAMED_UNIT ( * ) SI_UNIT ( $, .STERADIAN. ) SOLID_ANGLE_UNIT ( ) );
#147 = ADVANCED_FACE ( 'NONE', ( #50 ), #67, .T. ) ;
#148 = APPROVAL_STATUS ( 'not_yet_approved' ) ;
#149 = CIRCLE ( 'NONE', #218, 6.000000000000006217 ) ;
#150 = VERTEX_POINT ( 'NONE', #125 ) ;
#151 =( NAMED_UNIT ( * ) PLANE_ANGLE_UNIT ( ) SI_UNIT ( $, .RADIAN. ) );
#152 = EDGE_LOOP ( 'NONE', ( #176, #45, #283, #112 ) ) ;
#153 = APPLICATION_CONTEXT ( 'configuration controlled 3d designs of mechanical parts and assemblies' ) ;
#154 = DIRECTION ( 'NONE',  ( -3.491481338843133355E-15, 1.224646799147353207E-16, -1.000000000000000000 ) ) ;
#155 = AXIS2_PLACEMENT_3D ( 'NONE', #111, #255, #16 ) ;
#156 = ORIENTED_EDGE ( 'NONE', *, *, #186, .F. ) ;
#157 = PERSON_AND_ORGANIZATION ( #143, #59 ) ;
#158 = CARTESIAN_POINT ( 'NONE',  ( 2.856031735173682958E-13, -1.001761081702534806E-14, 81.79999999999999716 ) ) ;
#159 = EDGE_CURVE ( 'NONE', #256, #171, #249, .T. ) ;
#160 = DIRECTION ( 'NONE',  ( 3.491481338843133355E-15, -1.224646799147353207E-16, 1.000000000000000000 ) ) ;
#161 = AXIS2_PLACEMENT_3D ( 'NONE', #219, #77, #178 ) ;
#162 = CYLINDRICAL_SURFACE ( 'NONE', #10, 6.000000000000000888 ) ;
#163 = CARTESIAN_POINT ( 'NONE',  ( 2.094888803305902417E-14, -7.347880794884197636E-16, 6.000000000000063061 ) ) ;
#164 = CC_DESIGN_PERSON_AND_ORGANIZATION_ASSIGNMENT ( #261, #258, ( #276 ) ) ;
#165 = FACE_OUTER_BOUND ( 'NONE', #211, .T. ) ;
#166 = CONICAL_SURFACE ( 'NONE', #270, 4.800000000000006928, 0.7853981633974453924 ) ;
#167 = CARTESIAN_POINT ( 'NONE',  ( 2.897929511239800811E-13, -1.016456843292303150E-14, 83.00000000000000000 ) ) ;
#168 = APPROVAL_STATUS ( 'not_yet_approved' ) ;
#169 = EDGE_LOOP ( 'NONE', ( #217, #90, #207, #212 ) ) ;
#170 = CARTESIAN_POINT ( 'NONE',  ( 0.0000000000000000000, 0.0000000000000000000, 0.0000000000000000000 ) ) ;
#171 = VERTEX_POINT ( 'NONE', #269 ) ;
#172 = COORDINATED_UNIVERSAL_TIME_OFFSET ( 1, 0, .AHEAD. ) ;
#173 = ORIENTED_EDGE ( 'NONE', *, *, #252, .T. ) ;
#174 = DATE_AND_TIME ( #241, #238 ) ;
#175 = AXIS2_PLACEMENT_3D ( 'NONE', #170, #36, #83 ) ;
#176 = ORIENTED_EDGE ( 'NONE', *, *, #13, .T. ) ;
#177 = DIRECTION ( 'NONE',  ( 0.0000000000000000000, 1.000000000000000000, 0.0000000000000000000 ) ) ;
#178 = DIRECTION ( 'NONE',  ( -5.135813185032633029E-31, -1.000000000000000000, -1.445602896647340396E-16 ) ) ;
#179 = DIRECTION ( 'NONE',  ( 5.135813185032633029E-31, 1.000000000000000000, 1.445602896647340396E-16 ) ) ;
#180 = APPROVAL_PERSON_ORGANIZATION ( #274, #57, #205 ) ;
#181 = UNCERTAINTY_MEASURE_WITH_UNIT (LENGTH_MEASURE( 1.000000000000000082E-05 ), #254, 'distance_accuracy_value', 'NONE');
#182 = LINE ( 'NONE', #5, #25 ) ;
#183 = EDGE_CURVE ( 'NONE', #150, #215, #80, .T. ) ;
#184 = DIRECTION ( 'NONE',  ( 4.275831445896959482E-31, 1.000000000000000000, 1.224646799147353207E-16 ) ) ;
#185 = AXIS2_PLACEMENT_3D ( 'NONE', #286, #66, #239 ) ;
#186 = EDGE_CURVE ( 'NONE', #235, #150, #246, .T. ) ;
#187 = ADVANCED_FACE ( 'NONE', ( #98 ), #263, .T. ) ;
#188 = CC_DESIGN_APPROVAL ( #57, ( #84 ) ) ;
#189 = DIRECTION ( 'NONE',  ( -3.491481338843133355E-15, 1.224646799147353207E-16, -1.000000000000000000 ) ) ;
#190 = CALENDAR_DATE ( 2021, 21, 9 ) ;
#191 = PERSON_AND_ORGANIZATION ( #143, #59 ) ;
#192 = APPLICATION_PROTOCOL_DEFINITION ( 'international standard', 'config_control_design', 1994, #139 ) ;
#193 = ORIENTED_EDGE ( 'NONE', *, *, #226, .T. ) ;
#194 = VERTEX_POINT ( 'NONE', #268 ) ;
#195 = EDGE_LOOP ( 'NONE', ( #71, #110, #257 ) ) ;
#196 = CYLINDRICAL_SURFACE ( 'NONE', #185, 6.000000000000000888 ) ;
#197 = CARTESIAN_POINT ( 'NONE',  ( 2.168367611254743506E-14, 5.999999999999994671, 6.000000000000063949 ) ) ;
#198 = DIRECTION ( 'NONE',  ( 0.0000000000000000000, 1.000000000000000000, 0.0000000000000000000 ) ) ;
#199 = PRODUCT ( '41463', '41463', '', ( #11 ) ) ;
#200 = DIRECTION ( 'NONE',  ( 5.135813185032633029E-31, 1.000000000000000000, 1.445602896647340396E-16 ) ) ;
#201 = DIRECTION ( 'NONE',  ( -3.491481338843133355E-15, 1.224646799147353207E-16, -1.000000000000000000 ) ) ;
#202 = DIRECTION ( 'NONE',  ( -4.275831445896958607E-31, -1.000000000000000000, -1.224646799147353207E-16 ) ) ;
#203 = CLOSED_SHELL ( 'NONE', ( #17, #9, #213, #100, #113, #279 ) ) ;
#204 = PERSON_AND_ORGANIZATION_ROLE ( 'creator' ) ;
#205 = APPROVAL_ROLE ( '' ) ;
#206 = DATE_AND_TIME ( #190, #259 ) ;
#207 = ORIENTED_EDGE ( 'NONE', *, *, #13, .F. ) ;
#208 = ADVANCED_BREP_SHAPE_REPRESENTATION ( '41463', ( #99, #104, #175 ), #229 ) ;
#209 = PERSON_AND_ORGANIZATION ( #143, #59 ) ;
#210 = VECTOR ( 'NONE', #6, 1000.000000000000000 ) ;
#211 = EDGE_LOOP ( 'NONE', ( #135, #284 ) ) ;
#212 = ORIENTED_EDGE ( 'NONE', *, *, #252, .F. ) ;
#213 = ADVANCED_FACE ( 'NONE', ( #165 ), #247, .F. ) ;
#214 = DATE_AND_TIME ( #264, #55 ) ;
#215 = VERTEX_POINT ( 'NONE', #81 ) ;
#216 = DATE_AND_TIME ( #1, #8 ) ;
#217 = ORIENTED_EDGE ( 'NONE', *, *, #272, .T. ) ;
#218 = AXIS2_PLACEMENT_3D ( 'NONE', #97, #122, #245 ) ;
#219 = CARTESIAN_POINT ( 'NONE',  ( 2.094888803305902417E-14, -7.347880794884197636E-16, 6.000000000000063061 ) ) ;
#220 = PERSON_AND_ORGANIZATION ( #143, #59 ) ;
#221 = DESIGN_CONTEXT ( 'detailed design', #153, 'design' ) ;
#222 = CARTESIAN_POINT ( 'NONE',  ( 2.903807815875708401E-13, -4.800000000000016698, 83.00000000000000000 ) ) ;
#223 = CARTESIAN_POINT ( 'NONE',  ( 2.897929511239800811E-13, -1.016456843292303150E-14, 83.00000000000000000 ) ) ;
#224 = AXIS2_PLACEMENT_3D ( 'NONE', #28, #2, #200 ) ;
#225 = DIRECTION ( 'NONE',  ( -3.491481338843133355E-15, 1.224646799147353207E-16, -1.000000000000000000 ) ) ;
#226 = EDGE_CURVE ( 'NONE', #194, #260, #253, .T. ) ;
#227 = DIRECTION ( 'NONE',  ( -4.275831445896958607E-31, -1.000000000000000000, -1.224646799147353207E-16 ) ) ;
#228 = EDGE_CURVE ( 'NONE', #132, #171, #33, .T. ) ;
#229 =( GEOMETRIC_REPRESENTATION_CONTEXT ( 3 ) GLOBAL_UNCERTAINTY_ASSIGNED_CONTEXT ( ( #181 ) ) GLOBAL_UNIT_ASSIGNED_CONTEXT ( ( #254, #151, #146 ) ) REPRESENTATION_CONTEXT ( 'NONE', 'WORKASPACE' ) );
#230 = APPROVAL_ROLE ( '' ) ;
#231 = AXIS2_PLACEMENT_3D ( 'NONE', #158, #93, #177 ) ;
#232 = EDGE_CURVE ( 'NONE', #132, #256, #244, .T. ) ;
#233 = CC_DESIGN_PERSON_AND_ORGANIZATION_ASSIGNMENT ( #35, #204, ( #84 ) ) ;
#234 = APPLICATION_PROTOCOL_DEFINITION ( 'international standard', 'config_control_design', 1994, #153 ) ;
#235 = VERTEX_POINT ( 'NONE', #53 ) ;
#236 = COORDINATED_UNIVERSAL_TIME_OFFSET ( 1, 0, .AHEAD. ) ;
#237 = VERTEX_POINT ( 'NONE', #64 ) ;
#238 = LOCAL_TIME ( 9, 46, 54.00000000000000000, #74 ) ;
#239 = DIRECTION ( 'NONE',  ( 4.275831445896959482E-31, 1.000000000000000000, 1.224646799147353207E-16 ) ) ;
#240 = CC_DESIGN_PERSON_AND_ORGANIZATION_ASSIGNMENT ( #220, #68, ( #276 ) ) ;
#241 = CALENDAR_DATE ( 2021, 21, 9 ) ;
#242 = EDGE_LOOP ( 'NONE', ( #20, #26, #40 ) ) ;
#243 = APPROVAL_STATUS ( 'not_yet_approved' ) ;
#244 = LINE ( 'NONE', #138, #92 ) ;
#245 = DIRECTION ( 'NONE',  ( 0.0000000000000000000, 1.000000000000000000, 0.0000000000000000000 ) ) ;
#246 = LINE ( 'NONE', #49, #210 ) ;
#247 = PLANE ( 'NONE',  #106 ) ;
#248 = DIRECTION ( 'NONE',  ( -3.491481338843133355E-15, 1.224646799147353207E-16, -1.000000000000000000 ) ) ;
#249 = CIRCLE ( 'NONE', #224, 5.999999999999995559 ) ;
#250 = PLANE ( 'NONE',  #285 ) ;
#251 = APPROVAL_DATE_TIME ( #206, #57 ) ;
#252 = EDGE_CURVE ( 'NONE', #260, #237, #121, .T. ) ;
#253 = CIRCLE ( 'NONE', #141, 4.800000000000006928 ) ;
#254 =( LENGTH_UNIT ( ) NAMED_UNIT ( * ) SI_UNIT ( .MILLI., .METRE. ) );
#255 = DIRECTION ( 'NONE',  ( -3.491481338843133355E-15, 1.224646799147353207E-16, -1.000000000000000000 ) ) ;
#256 = VERTEX_POINT ( 'NONE', #14 ) ;
#257 = ORIENTED_EDGE ( 'NONE', *, *, #280, .T. ) ;
#258 = PERSON_AND_ORGANIZATION_ROLE ( 'creator' ) ;
#259 = LOCAL_TIME ( 9, 46, 54.00000000000000000, #236 ) ;
#260 = VERTEX_POINT ( 'NONE', #56 ) ;
#261 = PERSON_AND_ORGANIZATION ( #143, #59 ) ;
#262 = EDGE_CURVE ( 'NONE', #215, #150, #73, .T. ) ;
#263 = PLANE ( 'NONE',  #18 ) ;
#264 = CALENDAR_DATE ( 2021, 21, 9 ) ;
#265 = VECTOR ( 'NONE', #287, 999.9999999999998863 ) ;
#266 = FACE_OUTER_BOUND ( 'NONE', #195, .T. ) ;
#267 = DIRECTION ( 'NONE',  ( 3.491481338843133355E-15, -1.224646799147353207E-16, 1.000000000000000000 ) ) ;
#268 = CARTESIAN_POINT ( 'NONE',  ( 2.883593715922138239E-13, -4.800000000000016698, 83.00000000000000000 ) ) ;
#269 = CARTESIAN_POINT ( 'NONE',  ( 2.168367611254743506E-14, 5.999999999999994671, 6.000000000000063949 ) ) ;
#270 = AXIS2_PLACEMENT_3D ( 'NONE', #123, #78, #198 ) ;
#271 = CONICAL_SURFACE ( 'NONE', #60, 4.800000000000006928, 0.7853981633974453924 ) ;
#272 = EDGE_CURVE ( 'NONE', #260, #194, #133, .T. ) ;
#273 = SECURITY_CLASSIFICATION ( '', '', #43 ) ;
#274 = PERSON_AND_ORGANIZATION ( #143, #59 ) ;
#275 = CARTESIAN_POINT ( 'NONE',  ( 2.094888803305902417E-14, -7.347880794884197636E-16, 6.000000000000063061 ) ) ;
#276 = PRODUCT_DEFINITION_FORMATION_WITH_SPECIFIED_SOURCE ( 'ANY', '', #199, .NOT_KNOWN. ) ;
#277 = AXIS2_PLACEMENT_3D ( 'NONE', #72, #267, #126 ) ;
#278 = EDGE_LOOP ( 'NONE', ( #62, #22 ) ) ;
#279 = ADVANCED_FACE ( 'NONE', ( #105 ), #250, .F. ) ;
#280 = EDGE_CURVE ( 'NONE', #171, #256, #12, .T. ) ;
#281 = APPROVAL ( #148, 'UNSPECIFIED' ) ;
#282 = DATE_AND_TIME ( #38, #129 ) ;
#283 = ORIENTED_EDGE ( 'NONE', *, *, #262, .F. ) ;
#284 = ORIENTED_EDGE ( 'NONE', *, *, #183, .T. ) ;
#285 = AXIS2_PLACEMENT_3D ( 'NONE', #63, #154, #19 ) ;
#286 = CARTESIAN_POINT ( 'NONE',  ( 0.0000000000000000000, 0.0000000000000000000, 0.0000000000000000000 ) ) ;
#287 = DIRECTION ( 'NONE',  ( 2.555445736705828995E-15, 0.7071067811865434649, 0.7071067811865516806 ) ) ;
ENDSEC;
END-ISO-10303-21;
