ISO-10303-21;
HEADER;
FILE_DESCRIPTION (( 'STEP AP203' ),
    '1' );
FILE_NAME ('41457.step',
    '2021-09-03T07:22:12',
    ( '' ),
    ( '' ),
    'SwSTEP 2.0',
    'SolidWorks 2019',
    '' );
FILE_SCHEMA (( 'CONFIG_CONTROL_DESIGN' ));
ENDSEC;

DATA;
#1 = VECTOR ( 'NONE', #296, 1000.000000000000000 ) ;
#2 = DIRECTION ( 'NONE',  ( -3.491481338843133355E-15, 1.224646799147353207E-16, -1.000000000000000000 ) ) ;
#3 = EDGE_CURVE ( 'NONE', #321, #277, #199, .T. ) ;
#4 = CARTESIAN_POINT ( 'NONE',  ( 6.503470279599484961E-15, -2.281110304859997353E-16, 1.862667918985453808 ) ) ;
#5 = CARTESIAN_POINT ( 'NONE',  ( 3.796405077356777168E-16, -3.099999999999996092, -3.796405077356802806E-16 ) ) ;
#6 = APPLICATION_PROTOCOL_DEFINITION ( 'international standard', 'config_control_design', 1994, #99 ) ;
#7 = EDGE_CURVE ( 'NONE', #253, #227, #271, .T. ) ;
#8 = DIRECTION ( 'NONE',  ( 3.491481338843133355E-15, -1.224646799147353207E-16, 1.000000000000000000 ) ) ;
#9 = DIRECTION ( 'NONE',  ( -3.491481338843133355E-15, 1.224646799147353207E-16, -1.000000000000000000 ) ) ;
#10 = APPROVAL_STATUS ( 'not_yet_approved' ) ;
#11 = EDGE_LOOP ( 'NONE', ( #255, #65 ) ) ;
#12 = CARTESIAN_POINT ( 'NONE',  ( 6.883110787335165340E-15, 3.099999999999994316, 1.862667918985454252 ) ) ;
#13 = LINE ( 'NONE', #12, #100 ) ;
#14 = PERSON_AND_ORGANIZATION ( #281, #59 ) ;
#15 = ADVANCED_FACE ( 'NONE', ( #20 ), #93, .T. ) ;
#16 = CALENDAR_DATE ( 2021, 3, 9 ) ;
#17 = VERTEX_POINT ( 'NONE', #103 ) ;
#18 = AXIS2_PLACEMENT_3D ( 'NONE', #124, #289, #24 ) ;
#19 = COORDINATED_UNIVERSAL_TIME_OFFSET ( 1, 0, .AHEAD. ) ;
#20 = FACE_OUTER_BOUND ( 'NONE', #116, .T. ) ;
#21 = CC_DESIGN_PERSON_AND_ORGANIZATION_ASSIGNMENT ( #326, #299, ( #211 ) ) ;
#22 = CARTESIAN_POINT ( 'NONE',  ( 3.796405077356781606E-16, -3.100000000000000089, -3.796405077356807737E-16 ) ) ;
#23 = AXIS2_PLACEMENT_3D ( 'NONE', #86, #60, #97 ) ;
#24 = DIRECTION ( 'NONE',  ( 0.0000000000000000000, 1.000000000000000000, 0.0000000000000000000 ) ) ;
#25 = DIRECTION ( 'NONE',  ( 0.0000000000000000000, 1.000000000000000000, 0.0000000000000000000 ) ) ;
#26 = ADVANCED_FACE ( 'NONE', ( #138 ), #251, .T. ) ;
#27 = ORIENTED_EDGE ( 'NONE', *, *, #206, .T. ) ;
#28 = DIRECTION ( 'NONE',  ( 1.903218546456021928E-15, 0.8571673007021098911, 0.5150380749100583744 ) ) ;
#29 = CLOSED_SHELL ( 'NONE', ( #90, #85, #306, #15, #26, #263 ) ) ;
#30 = PRODUCT_DEFINITION_FORMATION_WITH_SPECIFIED_SOURCE ( 'ANY', '', #324, .NOT_KNOWN. ) ;
#31 = ORIENTED_EDGE ( 'NONE', *, *, #123, .F. ) ;
#32 = DIRECTION ( 'NONE',  ( -3.491481338843133355E-15, 1.224646799147353207E-16, -1.000000000000000000 ) ) ;
#33 = ORIENTED_EDGE ( 'NONE', *, *, #118, .T. ) ;
#34 = CARTESIAN_POINT ( 'NONE',  ( 2.419596567818291352E-13, -8.486802318091157127E-15, 69.29999999999999716 ) ) ;
#35 = ORIENTED_EDGE ( 'NONE', *, *, #215, .T. ) ;
#36 = CIRCLE ( 'NONE', #18, 3.099999999999996980 ) ;
#37 = FACE_OUTER_BOUND ( 'NONE', #292, .T. ) ;
#38 = ORIENTED_EDGE ( 'NONE', *, *, #294, .T. ) ;
#39 = CARTESIAN_POINT ( 'NONE',  ( 0.0000000000000000000, 0.0000000000000000000, 0.0000000000000000000 ) ) ;
#40 = CC_DESIGN_DATE_AND_TIME_ASSIGNMENT ( #226, #331, ( #211 ) ) ;
#41 = DIRECTION ( 'NONE',  ( -3.491481338843133355E-15, 1.224646799147353207E-16, -1.000000000000000000 ) ) ;
#42 = ORIENTED_EDGE ( 'NONE', *, *, #154, .F. ) ;
#43 = CIRCLE ( 'NONE', #172, 3.100000000000002753 ) ;
#44 = CARTESIAN_POINT ( 'NONE',  ( 6.883110787335165340E-15, 3.099999999999994316, 1.862667918985454252 ) ) ;
#45 = CARTESIAN_POINT ( 'NONE',  ( 2.444036937190193601E-13, -8.572527594031472993E-15, 70.00000000000000000 ) ) ;
#46 = LOCAL_TIME ( 9, 22, 12.00000000000000000, #55 ) ;
#47 = DIRECTION ( 'NONE',  ( -4.275831445896958607E-31, -1.000000000000000000, -1.224646799147353207E-16 ) ) ;
#48 = CARTESIAN_POINT ( 'NONE',  ( 2.446976089508147649E-13, -2.400000000000011458, 70.00000000000000000 ) ) ;
#49 = CC_DESIGN_PERSON_AND_ORGANIZATION_ASSIGNMENT ( #14, #140, ( #30 ) ) ;
#50 = SHAPE_DEFINITION_REPRESENTATION ( #84, #119 ) ;
#51 = MANIFOLD_SOLID_BREP ( 'Corps-Déplacer/Copier1[1]', #29 ) ;
#52 = DIRECTION ( 'NONE',  ( -3.491481338843133355E-15, 1.224646799147353207E-16, -1.000000000000000000 ) ) ;
#53 = AXIS2_PLACEMENT_3D ( 'NONE', #202, #305, #160 ) ;
#54 = CARTESIAN_POINT ( 'NONE',  ( 0.0000000000000000000, 0.0000000000000000000, 0.0000000000000000000 ) ) ;
#55 = COORDINATED_UNIVERSAL_TIME_OFFSET ( 1, 0, .AHEAD. ) ;
#56 = DATE_TIME_ROLE ( 'creation_date' ) ;
#57 = CYLINDRICAL_SURFACE ( 'NONE', #323, 3.099999999999996092 ) ;
#58 = EDGE_LOOP ( 'NONE', ( #212, #62, #27, #200 ) ) ;
#59 = ORGANIZATION ( 'UNSPECIFIED', 'UNSPECIFIED', '' ) ;
#60 = DIRECTION ( 'NONE',  ( -3.491481338843133355E-15, 1.224646799147353207E-16, -1.000000000000000000 ) ) ;
#61 = ADVANCED_FACE ( 'NONE', ( #216 ), #57, .T. ) ;
#62 = ORIENTED_EDGE ( 'NONE', *, *, #149, .T. ) ;
#63 = UNCERTAINTY_MEASURE_WITH_UNIT (LENGTH_MEASURE( 1.000000000000000082E-05 ), #337, 'distance_accuracy_value', 'NONE');
#64 = ORIENTED_EDGE ( 'NONE', *, *, #183, .F. ) ;
#65 = ORIENTED_EDGE ( 'NONE', *, *, #287, .T. ) ;
#66 = CARTESIAN_POINT ( 'NONE',  ( 8.030407079339205455E-14, 2.324627663125873271E-32, 23.00000000000000000 ) ) ;
#67 = CIRCLE ( 'NONE', #92, 3.100000000000002753 ) ;
#68 = LOCAL_TIME ( 9, 22, 12.00000000000000000, #19 ) ;
#69 = CARTESIAN_POINT ( 'NONE',  ( 8.030407079339205455E-14, -2.816687638038912352E-15, 23.00000000000000000 ) ) ;
#70 = AXIS2_PLACEMENT_3D ( 'NONE', #307, #98, #268 ) ;
#71 = DIRECTION ( 'NONE',  ( -3.491481338843133355E-15, 1.224646799147353207E-16, -1.000000000000000000 ) ) ;
#72 = DIRECTION ( 'NONE',  ( -3.491481338843133355E-15, 1.224646799147353207E-16, -1.000000000000000000 ) ) ;
#73 = LINE ( 'NONE', #267, #308 ) ;
#74 = ORIENTED_EDGE ( 'NONE', *, *, #177, .T. ) ;
#75 = AXIS2_PLACEMENT_3D ( 'NONE', #125, #2, #25 ) ;
#76 = APPROVAL_PERSON_ORGANIZATION ( #89, #319, #228 ) ;
#77 = ORIENTED_EDGE ( 'NONE', *, *, #154, .T. ) ;
#78 = PERSON_AND_ORGANIZATION ( #281, #59 ) ;
#79 = PERSON_AND_ORGANIZATION ( #281, #59 ) ;
#80 = EDGE_LOOP ( 'NONE', ( #31, #110 ) ) ;
#81 = CARTESIAN_POINT ( 'NONE',  ( 2.444036937190193601E-13, 2.399999999999994138, 70.00000000000000000 ) ) ;
#82 = CC_DESIGN_APPROVAL ( #159, ( #30 ) ) ;
#83 = APPROVAL_ROLE ( '' ) ;
#84 = PRODUCT_DEFINITION_SHAPE ( 'NONE', 'NONE',  #248 ) ;
#85 = ADVANCED_FACE ( 'NONE', ( #274 ), #133, .T. ) ;
#86 = CARTESIAN_POINT ( 'NONE',  ( 2.444036937190193601E-13, 1.799711739194218455E-32, 70.00000000000000000 ) ) ;
#87 = VECTOR ( 'NONE', #137, 1000.000000000000000 ) ;
#88 = DIRECTION ( 'NONE',  ( 1.798245827342159528E-15, -0.8571673007021100021, 0.5150380749100580413 ) ) ;
#89 = PERSON_AND_ORGANIZATION ( #281, #59 ) ;
#90 = ADVANCED_FACE ( 'NONE', ( #37 ), #106, .T. ) ;
#91 = CALENDAR_DATE ( 2021, 3, 9 ) ;
#92 = AXIS2_PLACEMENT_3D ( 'NONE', #34, #9, #105 ) ;
#93 = CYLINDRICAL_SURFACE ( 'NONE', #53, 3.100000000000000089 ) ;
#94 = FACE_OUTER_BOUND ( 'NONE', #11, .T. ) ;
#95 = CC_DESIGN_PERSON_AND_ORGANIZATION_ASSIGNMENT ( #280, #223, ( #30 ) ) ;
#96 =( NAMED_UNIT ( * ) SI_UNIT ( $, .STERADIAN. ) SOLID_ANGLE_UNIT ( ) );
#97 = DIRECTION ( 'NONE',  ( 4.275831445896958607E-31, 1.000000000000000000, 1.224646799147353207E-16 ) ) ;
#98 = DIRECTION ( 'NONE',  ( -3.491481338843133355E-15, 1.224646799147353207E-16, -1.000000000000000000 ) ) ;
#99 = APPLICATION_CONTEXT ( 'configuration controlled 3d designs of mechanical parts and assemblies' ) ;
#100 = VECTOR ( 'NONE', #28, 1000.000000000000114 ) ;
#101 = ORIENTED_EDGE ( 'NONE', *, *, #118, .F. ) ;
#102 = COORDINATED_UNIVERSAL_TIME_OFFSET ( 1, 0, .AHEAD. ) ;
#103 = CARTESIAN_POINT ( 'NONE',  ( 2.419596567818291352E-13, 3.099999999999994316, 69.29999999999999716 ) ) ;
#104 = ADVANCED_FACE ( 'NONE', ( #141 ), #304, .T. ) ;
#105 = DIRECTION ( 'NONE',  ( 0.0000000000000000000, 1.000000000000000000, 0.0000000000000000000 ) ) ;
#106 = CONICAL_SURFACE ( 'NONE', #114, 2.400000000000003020, 0.7853981633974439491 ) ;
#107 = VERTEX_POINT ( 'NONE', #158 ) ;
#108 = APPROVAL_DATE_TIME ( #250, #165 ) ;
#109 = DIRECTION ( 'NONE',  ( -3.491481338843133355E-15, 1.224646799147353207E-16, -1.000000000000000000 ) ) ;
#110 = ORIENTED_EDGE ( 'NONE', *, *, #149, .F. ) ;
#111 = APPROVAL_DATE_TIME ( #254, #319 ) ;
#112 = DESIGN_CONTEXT ( 'detailed design', #142, 'design' ) ;
#113 = VERTEX_POINT ( 'NONE', #207 ) ;
#114 = AXIS2_PLACEMENT_3D ( 'NONE', #242, #256, #163 ) ;
#115 = CARTESIAN_POINT ( 'NONE',  ( 6.503470279599484961E-15, -2.281110304859997353E-16, 1.862667918985453808 ) ) ;
#116 = EDGE_LOOP ( 'NONE', ( #101, #260, #196, #238 ) ) ;
#117 = FACE_OUTER_BOUND ( 'NONE', #80, .T. ) ;
#118 = EDGE_CURVE ( 'NONE', #328, #227, #129, .T. ) ;
#119 = ADVANCED_BREP_SHAPE_REPRESENTATION ( '41457', ( #51, #278, #210 ), #126 ) ;
#120 = ORIENTED_EDGE ( 'NONE', *, *, #279, .F. ) ;
#121 = AXIS2_PLACEMENT_3D ( 'NONE', #320, #109, #191 ) ;
#122 = CARTESIAN_POINT ( 'NONE',  ( 1.615115042953462082E-13, -3.099999999999999645, 23.00000000000000000 ) ) ;
#123 = EDGE_CURVE ( 'NONE', #107, #113, #217, .T. ) ;
#124 = CARTESIAN_POINT ( 'NONE',  ( 8.030407079339205455E-14, -2.816687638038912352E-15, 23.00000000000000000 ) ) ;
#125 = CARTESIAN_POINT ( 'NONE',  ( 8.030407079339205455E-14, -2.816687638038912352E-15, 23.00000000000000000 ) ) ;
#126 =( GEOMETRIC_REPRESENTATION_CONTEXT ( 3 ) GLOBAL_UNCERTAINTY_ASSIGNED_CONTEXT ( ( #63 ) ) GLOBAL_UNIT_ASSIGNED_CONTEXT ( ( #337, #176, #96 ) ) REPRESENTATION_CONTEXT ( 'NONE', 'WORKASPACE' ) );
#127 = PLANE ( 'NONE',  #157 ) ;
#128 = EDGE_CURVE ( 'NONE', #113, #328, #311, .T. ) ;
#129 = LINE ( 'NONE', #22, #175 ) ;
#130 = DIRECTION ( 'NONE',  ( 3.491481338843133355E-15, -1.224646799147353207E-16, 1.000000000000000000 ) ) ;
#131 = CARTESIAN_POINT ( 'NONE',  ( 8.030407079339205455E-14, -2.816687638038912352E-15, 23.00000000000000000 ) ) ;
#132 = EDGE_LOOP ( 'NONE', ( #169, #148, #168 ) ) ;
#133 = CYLINDRICAL_SURFACE ( 'NONE', #225, 3.100000000000000089 ) ;
#134 = EDGE_CURVE ( 'NONE', #17, #253, #73, .T. ) ;
#135 = ORIENTED_EDGE ( 'NONE', *, *, #3, .F. ) ;
#136 = CALENDAR_DATE ( 2021, 3, 9 ) ;
#137 = DIRECTION ( 'NONE',  ( -3.491481338843133355E-15, 1.224646799147353207E-16, -1.000000000000000000 ) ) ;
#138 = FACE_OUTER_BOUND ( 'NONE', #58, .T. ) ;
#139 = AXIS2_PLACEMENT_3D ( 'NONE', #284, #71, #336 ) ;
#140 = PERSON_AND_ORGANIZATION_ROLE ( 'creator' ) ;
#141 = FACE_OUTER_BOUND ( 'NONE', #259, .T. ) ;
#142 = APPLICATION_CONTEXT ( 'configuration controlled 3d designs of mechanical parts and assemblies' ) ;
#143 = CALENDAR_DATE ( 2021, 3, 9 ) ;
#144 = ORIENTED_EDGE ( 'NONE', *, *, #177, .F. ) ;
#145 = DIRECTION ( 'NONE',  ( -3.491481338843133355E-15, 1.224646799147353207E-16, -1.000000000000000000 ) ) ;
#146 = CONICAL_SURFACE ( 'NONE', #161, 3.099999999999994760, 1.029744258676649871 ) ;
#147 = APPROVAL_DATE_TIME ( #300, #159 ) ;
#148 = ORIENTED_EDGE ( 'NONE', *, *, #183, .T. ) ;
#149 = EDGE_CURVE ( 'NONE', #113, #107, #288, .T. ) ;
#150 = CIRCLE ( 'NONE', #139, 3.099999999999994760 ) ;
#151 = CARTESIAN_POINT ( 'NONE',  ( 1.615115042953461072E-13, -3.100000000000011635, 69.29999999999999716 ) ) ;
#152 = DIRECTION ( 'NONE',  ( 4.275831445896958607E-31, 1.000000000000000000, 1.224646799147353207E-16 ) ) ;
#153 = DIRECTION ( 'NONE',  ( -3.491481338843133355E-15, 1.224646799147353207E-16, -1.000000000000000000 ) ) ;
#154 = EDGE_CURVE ( 'NONE', #222, #181, #315, .T. ) ;
#155 = CARTESIAN_POINT ( 'NONE',  ( 6.503470279599483383E-15, -3.099999999999995204, 1.862667918985453364 ) ) ;
#156 = DIRECTION ( 'NONE',  ( -3.491481338843133355E-15, 1.224646799147353207E-16, -1.000000000000000000 ) ) ;
#157 = AXIS2_PLACEMENT_3D ( 'NONE', #233, #130, #47 ) ;
#158 = CARTESIAN_POINT ( 'NONE',  ( 2.444036937190193601E-13, 2.399999999999994138, 70.00000000000000000 ) ) ;
#159 = APPROVAL ( #291, 'UNSPECIFIED' ) ;
#160 = DIRECTION ( 'NONE',  ( 4.275831445896958607E-31, 1.000000000000000000, 1.224646799147353207E-16 ) ) ;
#161 = AXIS2_PLACEMENT_3D ( 'NONE', #241, #8, #185 ) ;
#162 = DIRECTION ( 'NONE',  ( 1.000000000000000000, 0.0000000000000000000, 0.0000000000000000000 ) ) ;
#163 = DIRECTION ( 'NONE',  ( 0.0000000000000000000, 1.000000000000000000, 0.0000000000000000000 ) ) ;
#164 = EDGE_LOOP ( 'NONE', ( #42, #120 ) ) ;
#165 = APPROVAL ( #10, 'UNSPECIFIED' ) ;
#166 = VECTOR ( 'NONE', #88, 1000.000000000000000 ) ;
#167 = DIRECTION ( 'NONE',  ( 4.970141791967068770E-31, 1.000000000000000000, 1.398970545142588760E-16 ) ) ;
#168 = ORIENTED_EDGE ( 'NONE', *, *, #312, .T. ) ;
#169 = ORIENTED_EDGE ( 'NONE', *, *, #215, .F. ) ;
#170 = CC_DESIGN_PERSON_AND_ORGANIZATION_ASSIGNMENT ( #209, #219, ( #248 ) ) ;
#171 = ORIENTED_EDGE ( 'NONE', *, *, #189, .T. ) ;
#172 = AXIS2_PLACEMENT_3D ( 'NONE', #231, #145, #224 ) ;
#173 = CC_DESIGN_APPROVAL ( #319, ( #211 ) ) ;
#174 = PLANE ( 'NONE',  #23 ) ;
#175 = VECTOR ( 'NONE', #317, 1000.000000000000000 ) ;
#176 =( NAMED_UNIT ( * ) PLANE_ANGLE_UNIT ( ) SI_UNIT ( $, .RADIAN. ) );
#177 = EDGE_CURVE ( 'NONE', #181, #321, #237, .T. ) ;
#178 = LINE ( 'NONE', #283, #286 ) ;
#179 = DIRECTION ( 'NONE',  ( -3.491481338843133355E-15, 1.224646799147353207E-16, -1.000000000000000000 ) ) ;
#180 = AXIS2_PLACEMENT_3D ( 'NONE', #232, #156, #152 ) ;
#181 = VERTEX_POINT ( 'NONE', #244 ) ;
#182 = APPROVAL_ROLE ( '' ) ;
#183 = EDGE_CURVE ( 'NONE', #235, #277, #13, .T. ) ;
#184 = DIRECTION ( 'NONE',  ( 0.0000000000000000000, 1.000000000000000000, 0.0000000000000000000 ) ) ;
#185 = DIRECTION ( 'NONE',  ( -4.970141791967068770E-31, -1.000000000000000000, -1.398970545142588760E-16 ) ) ;
#186 = PERSON_AND_ORGANIZATION_ROLE ( 'design_owner' ) ;
#187 = CONICAL_SURFACE ( 'NONE', #236, 3.099999999999994760, 1.029744258676649871 ) ;
#188 = ORIENTED_EDGE ( 'NONE', *, *, #189, .F. ) ;
#189 = EDGE_CURVE ( 'NONE', #17, #328, #67, .T. ) ;
#190 = DATE_AND_TIME ( #316, #282 ) ;
#191 = DIRECTION ( 'NONE',  ( 0.0000000000000000000, 1.000000000000000000, 0.0000000000000000000 ) ) ;
#192 = CARTESIAN_POINT ( 'NONE',  ( 8.030407079339205455E-14, 3.099999999999994316, 23.00000000000000000 ) ) ;
#193 = CARTESIAN_POINT ( 'NONE',  ( 0.0000000000000000000, 0.0000000000000000000, 0.0000000000000000000 ) ) ;
#194 = APPROVAL_PERSON_ORGANIZATION ( #79, #165, #83 ) ;
#195 = ADVANCED_FACE ( 'NONE', ( #249 ), #146, .T. ) ;
#196 = ORIENTED_EDGE ( 'NONE', *, *, #134, .T. ) ;
#197 = CARTESIAN_POINT ( 'NONE',  ( 8.030407079339205455E-14, 3.099999999999994316, 23.00000000000000000 ) ) ;
#198 = APPROVAL_STATUS ( 'not_yet_approved' ) ;
#199 = CIRCLE ( 'NONE', #273, 3.099999999999994760 ) ;
#200 = ORIENTED_EDGE ( 'NONE', *, *, #234, .F. ) ;
#201 = CARTESIAN_POINT ( 'NONE',  ( 6.503470279599483383E-15, -3.099999999999995204, 1.862667918985453364 ) ) ;
#202 = CARTESIAN_POINT ( 'NONE',  ( 0.0000000000000000000, 0.0000000000000000000, 0.0000000000000000000 ) ) ;
#203 = FACE_OUTER_BOUND ( 'NONE', #318, .T. ) ;
#204 = AXIS2_PLACEMENT_3D ( 'NONE', #66, #297, #262 ) ;
#205 = DIRECTION ( 'NONE',  ( -4.970141791967068770E-31, -1.000000000000000000, -1.398970545142588760E-16 ) ) ;
#206 = EDGE_CURVE ( 'NONE', #107, #17, #293, .T. ) ;
#207 = CARTESIAN_POINT ( 'NONE',  ( 2.435184531201897630E-13, -2.400000000000011458, 70.00000000000000000 ) ) ;
#208 = ORIENTED_EDGE ( 'NONE', *, *, #294, .F. ) ;
#209 = PERSON_AND_ORGANIZATION ( #281, #59 ) ;
#210 = AXIS2_PLACEMENT_3D ( 'NONE', #213, #247, #162 ) ;
#211 = SECURITY_CLASSIFICATION ( '', '', #261 ) ;
#212 = ORIENTED_EDGE ( 'NONE', *, *, #128, .F. ) ;
#213 = CARTESIAN_POINT ( 'NONE',  ( 0.0000000000000000000, 0.0000000000000000000, 0.0000000000000000000 ) ) ;
#214 = PERSON_AND_ORGANIZATION ( #281, #59 ) ;
#215 = EDGE_CURVE ( 'NONE', #235, #321, #258, .T. ) ;
#216 = FACE_OUTER_BOUND ( 'NONE', #333, .T. ) ;
#217 = CIRCLE ( 'NONE', #295, 2.400000000000003020 ) ;
#218 = ORIENTED_EDGE ( 'NONE', *, *, #128, .T. ) ;
#219 = PERSON_AND_ORGANIZATION_ROLE ( 'creator' ) ;
#220 = EDGE_LOOP ( 'NONE', ( #171, #33, #330, #313 ) ) ;
#221 = CC_DESIGN_DATE_AND_TIME_ASSIGNMENT ( #190, #56, ( #248 ) ) ;
#222 = VERTEX_POINT ( 'NONE', #192 ) ;
#223 = PERSON_AND_ORGANIZATION_ROLE ( 'design_supplier' ) ;
#224 = DIRECTION ( 'NONE',  ( 0.0000000000000000000, 1.000000000000000000, 0.0000000000000000000 ) ) ;
#225 = AXIS2_PLACEMENT_3D ( 'NONE', #54, #32, #245 ) ;
#226 = DATE_AND_TIME ( #16, #68 ) ;
#227 = VERTEX_POINT ( 'NONE', #122 ) ;
#228 = APPROVAL_ROLE ( '' ) ;
#229 = CC_DESIGN_PERSON_AND_ORGANIZATION_ASSIGNMENT ( #214, #186, ( #324 ) ) ;
#230 = VECTOR ( 'NONE', #310, 1000.000000000000000 ) ;
#231 = CARTESIAN_POINT ( 'NONE',  ( 2.419596567818291352E-13, -8.486802318091157127E-15, 69.29999999999999716 ) ) ;
#232 = CARTESIAN_POINT ( 'NONE',  ( 0.0000000000000000000, 0.0000000000000000000, 0.0000000000000000000 ) ) ;
#233 = CARTESIAN_POINT ( 'NONE',  ( 8.030407079339205455E-14, 2.324627663125873271E-32, 23.00000000000000000 ) ) ;
#234 = EDGE_CURVE ( 'NONE', #328, #17, #43, .T. ) ;
#235 = VERTEX_POINT ( 'NONE', #39 ) ;
#236 = AXIS2_PLACEMENT_3D ( 'NONE', #4, #309, #205 ) ;
#237 = LINE ( 'NONE', #5, #87 ) ;
#238 = ORIENTED_EDGE ( 'NONE', *, *, #287, .F. ) ;
#239 = APPLICATION_PROTOCOL_DEFINITION ( 'international standard', 'config_control_design', 1994, #142 ) ;
#240 = CC_DESIGN_APPROVAL ( #165, ( #248 ) ) ;
#241 = CARTESIAN_POINT ( 'NONE',  ( 6.503470279599484961E-15, -2.281110304859997353E-16, 1.862667918985453808 ) ) ;
#242 = CARTESIAN_POINT ( 'NONE',  ( 2.444036937190193601E-13, -8.572527594031472993E-15, 70.00000000000000000 ) ) ;
#243 = ORIENTED_EDGE ( 'NONE', *, *, #312, .F. ) ;
#244 = CARTESIAN_POINT ( 'NONE',  ( 4.378341104423142016E-14, -3.100000000000000089, 23.00000000000000000 ) ) ;
#245 = DIRECTION ( 'NONE',  ( 4.275831445896958607E-31, 1.000000000000000000, 1.224646799147353207E-16 ) ) ;
#246 = ORIENTED_EDGE ( 'NONE', *, *, #123, .T. ) ;
#247 = DIRECTION ( 'NONE',  ( 0.0000000000000000000, 0.0000000000000000000, 1.000000000000000000 ) ) ;
#248 = PRODUCT_DEFINITION ( 'UNKNOWN', '', #30, #112 ) ;
#249 = FACE_OUTER_BOUND ( 'NONE', #132, .T. ) ;
#250 = DATE_AND_TIME ( #136, #46 ) ;
#251 = CONICAL_SURFACE ( 'NONE', #121, 2.400000000000003020, 0.7853981633974439491 ) ;
#252 = APPROVAL_PERSON_ORGANIZATION ( #78, #159, #182 ) ;
#253 = VERTEX_POINT ( 'NONE', #197 ) ;
#254 = DATE_AND_TIME ( #91, #335 ) ;
#255 = ORIENTED_EDGE ( 'NONE', *, *, #7, .T. ) ;
#256 = DIRECTION ( 'NONE',  ( -3.491481338843133355E-15, 1.224646799147353207E-16, -1.000000000000000000 ) ) ;
#257 = ADVANCED_FACE ( 'NONE', ( #301 ), #327, .T. ) ;
#258 = LINE ( 'NONE', #201, #166 ) ;
#259 = EDGE_LOOP ( 'NONE', ( #77, #74, #243, #208 ) ) ;
#260 = ORIENTED_EDGE ( 'NONE', *, *, #234, .T. ) ;
#261 = SECURITY_CLASSIFICATION_LEVEL ( 'unclassified' ) ;
#262 = DIRECTION ( 'NONE',  ( -4.275831445896958607E-31, -1.000000000000000000, -1.224646799147353207E-16 ) ) ;
#263 = ADVANCED_FACE ( 'NONE', ( #117 ), #174, .F. ) ;
#264 = ORIENTED_EDGE ( 'NONE', *, *, #3, .T. ) ;
#265 = CLOSED_SHELL ( 'NONE', ( #104, #195, #302, #61, #257 ) ) ;
#266 = CC_DESIGN_SECURITY_CLASSIFICATION ( #211, ( #30 ) ) ;
#267 = CARTESIAN_POINT ( 'NONE',  ( 1.325507748228057186E-30, 3.100000000000000089, 3.796405077356794918E-16 ) ) ;
#268 = DIRECTION ( 'NONE',  ( 0.0000000000000000000, 1.000000000000000000, 0.0000000000000000000 ) ) ;
#269 = DIRECTION ( 'NONE',  ( -3.491481338843133355E-15, 1.224646799147353207E-16, -1.000000000000000000 ) ) ;
#270 = DIRECTION ( 'NONE',  ( 0.0000000000000000000, 1.000000000000000000, 0.0000000000000000000 ) ) ;
#271 = CIRCLE ( 'NONE', #334, 3.099999999999996980 ) ;
#272 = ORIENTED_EDGE ( 'NONE', *, *, #206, .F. ) ;
#273 = AXIS2_PLACEMENT_3D ( 'NONE', #115, #41, #167 ) ;
#274 = FACE_OUTER_BOUND ( 'NONE', #220, .T. ) ;
#275 = DIRECTION ( 'NONE',  ( 4.275831445896958607E-31, 1.000000000000000000, 1.224646799147353207E-16 ) ) ;
#276 = ORIENTED_EDGE ( 'NONE', *, *, #279, .T. ) ;
#277 = VERTEX_POINT ( 'NONE', #44 ) ;
#278 = MANIFOLD_SOLID_BREP ( 'Corps-Déplacer/Copier1[2]', #265 ) ;
#279 = EDGE_CURVE ( 'NONE', #181, #222, #36, .T. ) ;
#280 = PERSON_AND_ORGANIZATION ( #281, #59 ) ;
#281 = PERSON ( 'UNSPECIFIED', 'UNSPECIFIED', 'UNSPECIFIED', ('UNSPECIFIED'), ('UNSPECIFIED'), ('UNSPECIFIED') ) ;
#282 = LOCAL_TIME ( 9, 22, 12.00000000000000000, #325 ) ;
#283 = CARTESIAN_POINT ( 'NONE',  ( 1.325507748228055434E-30, 3.099999999999996092, 3.796405077356789987E-16 ) ) ;
#284 = CARTESIAN_POINT ( 'NONE',  ( 6.503470279599484961E-15, -2.281110304859997353E-16, 1.862667918985453808 ) ) ;
#285 = DIRECTION ( 'NONE',  ( 0.0000000000000000000, 1.000000000000000000, 0.0000000000000000000 ) ) ;
#286 = VECTOR ( 'NONE', #153, 1000.000000000000000 ) ;
#287 = EDGE_CURVE ( 'NONE', #227, #253, #303, .T. ) ;
#288 = CIRCLE ( 'NONE', #70, 2.400000000000003020 ) ;
#289 = DIRECTION ( 'NONE',  ( -3.491481338843133355E-15, 1.224646799147353207E-16, -1.000000000000000000 ) ) ;
#290 = LOCAL_TIME ( 9, 22, 12.00000000000000000, #102 ) ;
#291 = APPROVAL_STATUS ( 'not_yet_approved' ) ;
#292 = EDGE_LOOP ( 'NONE', ( #246, #218, #188, #272 ) ) ;
#293 = LINE ( 'NONE', #81, #1 ) ;
#294 = EDGE_CURVE ( 'NONE', #222, #277, #178, .T. ) ;
#295 = AXIS2_PLACEMENT_3D ( 'NONE', #45, #269, #270 ) ;
#296 = DIRECTION ( 'NONE',  ( -2.468850131082275599E-15, 0.7071067811865445751, -0.7071067811865504593 ) ) ;
#297 = DIRECTION ( 'NONE',  ( 3.491481338843133355E-15, -1.224646799147353207E-16, 1.000000000000000000 ) ) ;
#298 = AXIS2_PLACEMENT_3D ( 'NONE', #131, #179, #285 ) ;
#299 = PERSON_AND_ORGANIZATION_ROLE ( 'classification_officer' ) ;
#300 = DATE_AND_TIME ( #143, #290 ) ;
#301 = FACE_OUTER_BOUND ( 'NONE', #164, .T. ) ;
#302 = ADVANCED_FACE ( 'NONE', ( #203 ), #187, .T. ) ;
#303 = CIRCLE ( 'NONE', #75, 3.099999999999996980 ) ;
#304 = CYLINDRICAL_SURFACE ( 'NONE', #180, 3.099999999999996092 ) ;
#305 = DIRECTION ( 'NONE',  ( -3.491481338843133355E-15, 1.224646799147353207E-16, -1.000000000000000000 ) ) ;
#306 = ADVANCED_FACE ( 'NONE', ( #94 ), #127, .F. ) ;
#307 = CARTESIAN_POINT ( 'NONE',  ( 2.444036937190193601E-13, -8.572527594031472993E-15, 70.00000000000000000 ) ) ;
#308 = VECTOR ( 'NONE', #72, 1000.000000000000000 ) ;
#309 = DIRECTION ( 'NONE',  ( 3.491481338843133355E-15, -1.224646799147353207E-16, 1.000000000000000000 ) ) ;
#310 = DIRECTION ( 'NONE',  ( -2.382254525458727330E-15, -0.7071067811865443531, -0.7071067811865506814 ) ) ;
#311 = LINE ( 'NONE', #48, #230 ) ;
#312 = EDGE_CURVE ( 'NONE', #277, #321, #150, .T. ) ;
#313 = ORIENTED_EDGE ( 'NONE', *, *, #134, .F. ) ;
#314 = DIRECTION ( 'NONE',  ( -3.491481338843133355E-15, 1.224646799147353207E-16, -1.000000000000000000 ) ) ;
#315 = CIRCLE ( 'NONE', #298, 3.099999999999996980 ) ;
#316 = CALENDAR_DATE ( 2021, 3, 9 ) ;
#317 = DIRECTION ( 'NONE',  ( -3.491481338843133355E-15, 1.224646799147353207E-16, -1.000000000000000000 ) ) ;
#318 = EDGE_LOOP ( 'NONE', ( #64, #35, #264 ) ) ;
#319 = APPROVAL ( #198, 'UNSPECIFIED' ) ;
#320 = CARTESIAN_POINT ( 'NONE',  ( 2.444036937190193601E-13, -8.572527594031472993E-15, 70.00000000000000000 ) ) ;
#321 = VERTEX_POINT ( 'NONE', #155 ) ;
#322 = MECHANICAL_CONTEXT ( 'NONE', #99, 'mechanical' ) ;
#323 = AXIS2_PLACEMENT_3D ( 'NONE', #193, #52, #275 ) ;
#324 = PRODUCT ( '41457', '41457', '', ( #322 ) ) ;
#325 = COORDINATED_UNIVERSAL_TIME_OFFSET ( 1, 0, .AHEAD. ) ;
#326 = PERSON_AND_ORGANIZATION ( #281, #59 ) ;
#327 = PLANE ( 'NONE',  #204 ) ;
#328 = VERTEX_POINT ( 'NONE', #151 ) ;
#329 = PRODUCT_RELATED_PRODUCT_CATEGORY ( 'detail', '', ( #324 ) ) ;
#330 = ORIENTED_EDGE ( 'NONE', *, *, #7, .F. ) ;
#331 = DATE_TIME_ROLE ( 'classification_date' ) ;
#332 = COORDINATED_UNIVERSAL_TIME_OFFSET ( 1, 0, .AHEAD. ) ;
#333 = EDGE_LOOP ( 'NONE', ( #144, #276, #38, #135 ) ) ;
#334 = AXIS2_PLACEMENT_3D ( 'NONE', #69, #314, #184 ) ;
#335 = LOCAL_TIME ( 9, 22, 12.00000000000000000, #332 ) ;
#336 = DIRECTION ( 'NONE',  ( 4.970141791967068770E-31, 1.000000000000000000, 1.398970545142588760E-16 ) ) ;
#337 =( LENGTH_UNIT ( ) NAMED_UNIT ( * ) SI_UNIT ( .MILLI., .METRE. ) );
ENDSEC;
END-ISO-10303-21;
