ISO-10303-21;
HEADER;
FILE_DESCRIPTION (( 'STEP AP203' ),
    '1' );
FILE_NAME ('41456.step',
    '2021-09-03T07:22:11',
    ( '' ),
    ( '' ),
    'SwSTEP 2.0',
    'SolidWorks 2019',
    '' );
FILE_SCHEMA (( 'CONFIG_CONTROL_DESIGN' ));
ENDSEC;

DATA;
#1 = CARTESIAN_POINT ( 'NONE',  ( 4.888073874380386697E-14, -1.714505518806294638E-15, 14.00000000000000000 ) ) ;
#2 = CC_DESIGN_PERSON_AND_ORGANIZATION_ASSIGNMENT ( #204, #173, ( #8 ) ) ;
#3 = DATE_TIME_ROLE ( 'creation_date' ) ;
#4 = CARTESIAN_POINT ( 'NONE',  ( 3.251735139799734592E-15, -1.140555152429995718E-16, 0.9313339594927245724 ) ) ;
#5 = DIRECTION ( 'NONE',  ( 3.491481338843133355E-15, -1.224646799147353207E-16, 1.000000000000000000 ) ) ;
#6 = DIRECTION ( 'NONE',  ( 4.275831445896958607E-31, 1.000000000000000000, 1.224646799147353207E-16 ) ) ;
#7 = ADVANCED_FACE ( 'NONE', ( #149 ), #142, .F. ) ;
#8 = PRODUCT_DEFINITION_FORMATION_WITH_SPECIFIED_SOURCE ( 'ANY', '', #137, .NOT_KNOWN. ) ;
#9 = CARTESIAN_POINT ( 'NONE',  ( 0.0000000000000000000, 0.0000000000000000000, 0.0000000000000000000 ) ) ;
#10 = FACE_OUTER_BOUND ( 'NONE', #196, .T. ) ;
#11 = DIRECTION ( 'NONE',  ( 3.491481338843133355E-15, -1.224646799147353207E-16, 1.000000000000000000 ) ) ;
#12 = CYLINDRICAL_SURFACE ( 'NONE', #329, 1.549999999999997158 ) ;
#13 = CC_DESIGN_APPROVAL ( #314, ( #63 ) ) ;
#14 = DIRECTION ( 'NONE',  ( 0.0000000000000000000, 1.000000000000000000, 0.0000000000000000000 ) ) ;
#15 = FACE_OUTER_BOUND ( 'NONE', #152, .T. ) ;
#16 = APPLICATION_CONTEXT ( 'configuration controlled 3d designs of mechanical parts and assemblies' ) ;
#17 = EDGE_CURVE ( 'NONE', #94, #68, #99, .T. ) ;
#18 = CONICAL_SURFACE ( 'NONE', #78, 1.549999999999993383, 1.029744258676649871 ) ;
#19 = PERSON_AND_ORGANIZATION ( #79, #67 ) ;
#20 = APPLICATION_CONTEXT ( 'configuration controlled 3d designs of mechanical parts and assemblies' ) ;
#21 = ORIENTED_EDGE ( 'NONE', *, *, #23, .F. ) ;
#22 = AXIS2_PLACEMENT_3D ( 'NONE', #287, #146, #270 ) ;
#23 = EDGE_CURVE ( 'NONE', #68, #106, #312, .T. ) ;
#24 = CARTESIAN_POINT ( 'NONE',  ( 1.712234199852155013E-13, -1.150000000000005462, 49.00000000000000000 ) ) ;
#25 =( GEOMETRIC_REPRESENTATION_CONTEXT ( 3 ) GLOBAL_UNCERTAINTY_ASSIGNED_CONTEXT ( ( #277 ) ) GLOBAL_UNIT_ASSIGNED_CONTEXT ( ( #235, #130, #174 ) ) REPRESENTATION_CONTEXT ( 'NONE', 'WORKASPACE' ) );
#26 = DIRECTION ( 'NONE',  ( 0.0000000000000000000, 1.000000000000000000, 0.0000000000000000000 ) ) ;
#27 = COORDINATED_UNIVERSAL_TIME_OFFSET ( 1, 0, .AHEAD. ) ;
#28 = DIRECTION ( 'NONE',  ( 4.275831445896958607E-31, 1.000000000000000000, 1.224646799147353207E-16 ) ) ;
#29 = ADVANCED_FACE ( 'NONE', ( #319 ), #112, .T. ) ;
#30 = CARTESIAN_POINT ( 'NONE',  ( 1.705496166534298040E-13, -1.150000000000005462, 49.00000000000000000 ) ) ;
#31 = VECTOR ( 'NONE', #135, 1000.000000000000000 ) ;
#32 = AXIS2_PLACEMENT_3D ( 'NONE', #335, #95, #73 ) ;
#33 = EDGE_LOOP ( 'NONE', ( #59, #240, #34, #254 ) ) ;
#34 = ORIENTED_EDGE ( 'NONE', *, *, #231, .F. ) ;
#35 = DIRECTION ( 'NONE',  ( 3.491481338843133355E-15, -1.224646799147353207E-16, 1.000000000000000000 ) ) ;
#36 = CARTESIAN_POINT ( 'NONE',  ( 1.696859930677762937E-13, -5.951783443856137509E-15, 48.60000000000000142 ) ) ;
#37 = ORIENTED_EDGE ( 'NONE', *, *, #151, .T. ) ;
#38 = ORIENTED_EDGE ( 'NONE', *, *, #41, .T. ) ;
#39 = ORIENTED_EDGE ( 'NONE', *, *, #182, .F. ) ;
#40 = LINE ( 'NONE', #256, #220 ) ;
#41 = EDGE_CURVE ( 'NONE', #94, #189, #92, .T. ) ;
#42 = EDGE_LOOP ( 'NONE', ( #186, #180, #176 ) ) ;
#43 = AXIS2_PLACEMENT_3D ( 'NONE', #197, #307, #117 ) ;
#44 = DIRECTION ( 'NONE',  ( 1.798245827342159528E-15, -0.8571673007021100021, 0.5150380749100580413 ) ) ;
#45 = CARTESIAN_POINT ( 'NONE',  ( 1.898202538678387598E-16, -1.549999999999997158, -1.898202538678400417E-16 ) ) ;
#46 = DIRECTION ( 'NONE',  ( -3.491481338843133355E-15, 1.224646799147353207E-16, -1.000000000000000000 ) ) ;
#47 = DIRECTION ( 'NONE',  ( -2.382254525458709186E-15, -0.7071067811865493491, -0.7071067811865456854 ) ) ;
#48 = CC_DESIGN_PERSON_AND_ORGANIZATION_ASSIGNMENT ( #157, #273, ( #55 ) ) ;
#49 = PERSON_AND_ORGANIZATION ( #79, #67 ) ;
#50 = APPROVAL_ROLE ( '' ) ;
#51 = AXIS2_PLACEMENT_3D ( 'NONE', #97, #285, #308 ) ;
#52 = PRODUCT_DEFINITION_SHAPE ( 'NONE', 'NONE',  #63 ) ;
#53 = DATE_AND_TIME ( #268, #187 ) ;
#54 = EDGE_LOOP ( 'NONE', ( #65, #56 ) ) ;
#55 = SECURITY_CLASSIFICATION ( '', '', #258 ) ;
#56 = ORIENTED_EDGE ( 'NONE', *, *, #41, .F. ) ;
#57 = DATE_AND_TIME ( #104, #198 ) ;
#58 = FACE_OUTER_BOUND ( 'NONE', #127, .T. ) ;
#59 = ORIENTED_EDGE ( 'NONE', *, *, #144, .T. ) ;
#60 = ORIENTED_EDGE ( 'NONE', *, *, #144, .F. ) ;
#61 = AXIS2_PLACEMENT_3D ( 'NONE', #224, #134, #333 ) ;
#62 = DIRECTION ( 'NONE',  ( -3.491481338843133355E-15, 1.224646799147353207E-16, -1.000000000000000000 ) ) ;
#63 = PRODUCT_DEFINITION ( 'UNKNOWN', '', #8, #111 ) ;
#64 = EDGE_LOOP ( 'NONE', ( #276, #322, #249, #238 ) ) ;
#65 = ORIENTED_EDGE ( 'NONE', *, *, #151, .F. ) ;
#66 = CARTESIAN_POINT ( 'NONE',  ( 1.710825856033135470E-13, -6.000769315822030937E-15, 49.00000000000000000 ) ) ;
#67 = ORGANIZATION ( 'UNSPECIFIED', 'UNSPECIFIED', '' ) ;
#68 = VERTEX_POINT ( 'NONE', #234 ) ;
#69 = PERSON_AND_ORGANIZATION ( #79, #67 ) ;
#70 = APPROVAL_DATE_TIME ( #230, #314 ) ;
#71 = CARTESIAN_POINT ( 'NONE',  ( 4.888073874380386697E-14, -1.714505518806294638E-15, 14.00000000000000000 ) ) ;
#72 = SHAPE_DEFINITION_REPRESENTATION ( #52, #247 ) ;
#73 = DIRECTION ( 'NONE',  ( 0.0000000000000000000, 1.000000000000000000, 0.0000000000000000000 ) ) ;
#74 = DIRECTION ( 'NONE',  ( -3.491481338843133355E-15, 1.224646799147353207E-16, -1.000000000000000000 ) ) ;
#75 = CARTESIAN_POINT ( 'NONE',  ( 1.710825856033135470E-13, -6.000769315822030937E-15, 49.00000000000000000 ) ) ;
#76 = ORIENTED_EDGE ( 'NONE', *, *, #252, .T. ) ;
#77 = AXIS2_PLACEMENT_3D ( 'NONE', #265, #5, #309 ) ;
#78 = AXIS2_PLACEMENT_3D ( 'NONE', #325, #35, #183 ) ;
#79 = PERSON ( 'UNSPECIFIED', 'UNSPECIFIED', 'UNSPECIFIED', ('UNSPECIFIED'), ('UNSPECIFIED'), ('UNSPECIFIED') ) ;
#80 = CARTESIAN_POINT ( 'NONE',  ( 1.710825856033135470E-13, 1.149999999999993250, 49.00000000000000000 ) ) ;
#81 = ADVANCED_FACE ( 'NONE', ( #171 ), #126, .T. ) ;
#82 = COORDINATED_UNIVERSAL_TIME_OFFSET ( 1, 0, .AHEAD. ) ;
#83 = AXIS2_PLACEMENT_3D ( 'NONE', #71, #170, #26 ) ;
#84 = DIRECTION ( 'NONE',  ( 4.275831445896958607E-31, 1.000000000000000000, 1.224646799147353207E-16 ) ) ;
#85 = DIRECTION ( 'NONE',  ( -3.491481338843133355E-15, 1.224646799147353207E-16, -1.000000000000000000 ) ) ;
#86 = EDGE_CURVE ( 'NONE', #132, #161, #267, .T. ) ;
#87 = DIRECTION ( 'NONE',  ( 0.0000000000000000000, 1.000000000000000000, 0.0000000000000000000 ) ) ;
#88 = AXIS2_PLACEMENT_3D ( 'NONE', #229, #203, #145 ) ;
#89 = LINE ( 'NONE', #190, #271 ) ;
#90 = APPROVAL_STATUS ( 'not_yet_approved' ) ;
#91 = EDGE_CURVE ( 'NONE', #68, #330, #317, .T. ) ;
#92 = CIRCLE ( 'NONE', #289, 1.149999999999999245 ) ;
#93 = AXIS2_PLACEMENT_3D ( 'NONE', #148, #115, #28 ) ;
#94 = VERTEX_POINT ( 'NONE', #30 ) ;
#95 = DIRECTION ( 'NONE',  ( -3.491481338843133355E-15, 1.224646799147353207E-16, -1.000000000000000000 ) ) ;
#96 = ADVANCED_FACE ( 'NONE', ( #15 ), #177, .T. ) ;
#97 = CARTESIAN_POINT ( 'NONE',  ( 4.888073874380386697E-14, -1.714505518806294638E-15, 14.00000000000000000 ) ) ;
#98 = FACE_OUTER_BOUND ( 'NONE', #54, .T. ) ;
#99 = LINE ( 'NONE', #24, #274 ) ;
#100 = AXIS2_PLACEMENT_3D ( 'NONE', #166, #46, #263 ) ;
#101 = VERTEX_POINT ( 'NONE', #9 ) ;
#102 = APPROVAL ( #202, 'UNSPECIFIED' ) ;
#103 = LINE ( 'NONE', #80, #31 ) ;
#104 = CALENDAR_DATE ( 2021, 3, 9 ) ;
#105 = ORIENTED_EDGE ( 'NONE', *, *, #302, .F. ) ;
#106 = VERTEX_POINT ( 'NONE', #296 ) ;
#107 = ORIENTED_EDGE ( 'NONE', *, *, #139, .F. ) ;
#108 = ORIENTED_EDGE ( 'NONE', *, *, #252, .F. ) ;
#109 = CARTESIAN_POINT ( 'NONE',  ( 4.888073874380386697E-14, 1.549999999999993161, 14.00000000000000000 ) ) ;
#110 = EDGE_CURVE ( 'NONE', #189, #330, #103, .T. ) ;
#111 = DESIGN_CONTEXT ( 'detailed design', #20, 'design' ) ;
#112 = CONICAL_SURFACE ( 'NONE', #236, 1.549999999999993383, 1.029744258676649871 ) ;
#113 = CARTESIAN_POINT ( 'NONE',  ( 2.625605719566961415E-14, -1.549999999999996714, 14.00000000000000000 ) ) ;
#114 = EDGE_CURVE ( 'NONE', #315, #212, #40, .T. ) ;
#115 = DIRECTION ( 'NONE',  ( -3.491481338843133355E-15, 1.224646799147353207E-16, -1.000000000000000000 ) ) ;
#116 = DATE_AND_TIME ( #195, #221 ) ;
#117 = DIRECTION ( 'NONE',  ( 4.275831445896958607E-31, 1.000000000000000000, 1.224646799147353207E-16 ) ) ;
#118 = AXIS2_PLACEMENT_3D ( 'NONE', #66, #219, #185 ) ;
#119 = APPROVAL_DATE_TIME ( #116, #331 ) ;
#120 = CYLINDRICAL_SURFACE ( 'NONE', #43, 1.549999999999997158 ) ;
#121 = CC_DESIGN_PERSON_AND_ORGANIZATION_ASSIGNMENT ( #69, #192, ( #8 ) ) ;
#122 = DIRECTION ( 'NONE',  ( -3.491481338843133355E-15, 1.224646799147353207E-16, -1.000000000000000000 ) ) ;
#123 = APPROVAL_DATE_TIME ( #53, #102 ) ;
#124 = CARTESIAN_POINT ( 'NONE',  ( 3.251735139799733803E-15, -1.549999999999993605, 0.9313339594927243503 ) ) ;
#125 = DIRECTION ( 'NONE',  ( 0.0000000000000000000, 1.000000000000000000, 0.0000000000000000000 ) ) ;
#126 = CONICAL_SURFACE ( 'NONE', #22, 1.149999999999999245, 0.7853981633974510546 ) ;
#127 = EDGE_LOOP ( 'NONE', ( #158, #76, #223, #39 ) ) ;
#128 = CC_DESIGN_DATE_AND_TIME_ASSIGNMENT ( #57, #3, ( #63 ) ) ;
#129 = ORIENTED_EDGE ( 'NONE', *, *, #163, .T. ) ;
#130 =( NAMED_UNIT ( * ) PLANE_ANGLE_UNIT ( ) SI_UNIT ( $, .RADIAN. ) );
#131 = CARTESIAN_POINT ( 'NONE',  ( 1.898202538678383654E-16, -1.549999999999994049, -1.898202538678396719E-16 ) ) ;
#132 = VERTEX_POINT ( 'NONE', #113 ) ;
#133 = EDGE_LOOP ( 'NONE', ( #21, #278, #320, #305 ) ) ;
#134 = DIRECTION ( 'NONE',  ( 0.0000000000000000000, 0.0000000000000000000, 1.000000000000000000 ) ) ;
#135 = DIRECTION ( 'NONE',  ( -2.468850131082258244E-15, 0.7071067811865495711, -0.7071067811865454633 ) ) ;
#136 = APPROVAL_PERSON_ORGANIZATION ( #19, #314, #281 ) ;
#137 = PRODUCT ( '41456', '41456', '', ( #250 ) ) ;
#138 = CALENDAR_DATE ( 2021, 3, 9 ) ;
#139 = EDGE_CURVE ( 'NONE', #101, #212, #89, .T. ) ;
#140 = PERSON_AND_ORGANIZATION_ROLE ( 'creator' ) ;
#141 = FACE_OUTER_BOUND ( 'NONE', #64, .T. ) ;
#142 = PLANE ( 'NONE',  #77 ) ;
#143 = FACE_OUTER_BOUND ( 'NONE', #33, .T. ) ;
#144 = EDGE_CURVE ( 'NONE', #330, #68, #213, .T. ) ;
#145 = DIRECTION ( 'NONE',  ( 4.970141791967081907E-31, 1.000000000000000000, 1.398970545142592458E-16 ) ) ;
#146 = DIRECTION ( 'NONE',  ( -3.491481338843133355E-15, 1.224646799147353207E-16, -1.000000000000000000 ) ) ;
#147 = AXIS2_PLACEMENT_3D ( 'NONE', #209, #208, #178 ) ;
#148 = CARTESIAN_POINT ( 'NONE',  ( 1.710825856033135470E-13, 8.623618750305585453E-33, 49.00000000000000000 ) ) ;
#149 = FACE_OUTER_BOUND ( 'NONE', #279, .T. ) ;
#150 = MANIFOLD_SOLID_BREP ( 'Corps-Déplacer/Copier1[2]', #259 ) ;
#151 = EDGE_CURVE ( 'NONE', #189, #94, #172, .T. ) ;
#152 = EDGE_LOOP ( 'NONE', ( #105, #108 ) ) ;
#153 = DIRECTION ( 'NONE',  ( 4.970141791967081907E-31, 1.000000000000000000, 1.398970545142592458E-16 ) ) ;
#154 = VECTOR ( 'NONE', #62, 1000.000000000000000 ) ;
#155 = CARTESIAN_POINT ( 'NONE',  ( 0.0000000000000000000, 0.0000000000000000000, 0.0000000000000000000 ) ) ;
#156 = VERTEX_POINT ( 'NONE', #109 ) ;
#157 = PERSON_AND_ORGANIZATION ( #79, #67 ) ;
#158 = ORIENTED_EDGE ( 'NONE', *, *, #86, .F. ) ;
#159 = EDGE_CURVE ( 'NONE', #330, #156, #165, .T. ) ;
#160 = CC_DESIGN_APPROVAL ( #331, ( #55 ) ) ;
#161 = VERTEX_POINT ( 'NONE', #328 ) ;
#162 = ORIENTED_EDGE ( 'NONE', *, *, #17, .F. ) ;
#163 = EDGE_CURVE ( 'NONE', #101, #161, #293, .T. ) ;
#164 = AXIS2_PLACEMENT_3D ( 'NONE', #155, #318, #6 ) ;
#165 = LINE ( 'NONE', #299, #154 ) ;
#166 = CARTESIAN_POINT ( 'NONE',  ( 0.0000000000000000000, 0.0000000000000000000, 0.0000000000000000000 ) ) ;
#167 = AXIS2_PLACEMENT_3D ( 'NONE', #244, #11, #237 ) ;
#168 = AXIS2_PLACEMENT_3D ( 'NONE', #4, #85, #153 ) ;
#169 = CARTESIAN_POINT ( 'NONE',  ( 3.441555393667573993E-15, 1.549999999999993161, 0.9313339594927247944 ) ) ;
#170 = DIRECTION ( 'NONE',  ( -3.491481338843133355E-15, 1.224646799147353207E-16, -1.000000000000000000 ) ) ;
#171 = FACE_OUTER_BOUND ( 'NONE', #228, .T. ) ;
#172 = CIRCLE ( 'NONE', #118, 1.149999999999999245 ) ;
#173 = PERSON_AND_ORGANIZATION_ROLE ( 'creator' ) ;
#174 =( NAMED_UNIT ( * ) SI_UNIT ( $, .STERADIAN. ) SOLID_ANGLE_UNIT ( ) );
#175 = ADVANCED_FACE ( 'NONE', ( #98 ), #199, .F. ) ;
#176 = ORIENTED_EDGE ( 'NONE', *, *, #291, .T. ) ;
#177 = PLANE ( 'NONE',  #167 ) ;
#178 = DIRECTION ( 'NONE',  ( 0.0000000000000000000, 1.000000000000000000, 0.0000000000000000000 ) ) ;
#179 = LOCAL_TIME ( 9, 22, 11.00000000000000000, #191 ) ;
#180 = ORIENTED_EDGE ( 'NONE', *, *, #139, .T. ) ;
#181 = CARTESIAN_POINT ( 'NONE',  ( 1.696859930677762937E-13, 1.549999999999993161, 48.60000000000000142 ) ) ;
#182 = EDGE_CURVE ( 'NONE', #161, #212, #303, .T. ) ;
#183 = DIRECTION ( 'NONE',  ( -4.970141791967081907E-31, -1.000000000000000000, -1.398970545142592458E-16 ) ) ;
#184 = ORIENTED_EDGE ( 'NONE', *, *, #17, .T. ) ;
#185 = DIRECTION ( 'NONE',  ( 0.0000000000000000000, 1.000000000000000000, 0.0000000000000000000 ) ) ;
#186 = ORIENTED_EDGE ( 'NONE', *, *, #163, .F. ) ;
#187 = LOCAL_TIME ( 9, 22, 11.00000000000000000, #27 ) ;
#188 = CC_DESIGN_PERSON_AND_ORGANIZATION_ASSIGNMENT ( #49, #140, ( #63 ) ) ;
#189 = VERTEX_POINT ( 'NONE', #311 ) ;
#190 = CARTESIAN_POINT ( 'NONE',  ( 3.441555393667573993E-15, 1.549999999999993161, 0.9313339594927247944 ) ) ;
#191 = COORDINATED_UNIVERSAL_TIME_OFFSET ( 1, 0, .AHEAD. ) ;
#192 = PERSON_AND_ORGANIZATION_ROLE ( 'design_supplier' ) ;
#193 = LOCAL_TIME ( 9, 22, 11.00000000000000000, #269 ) ;
#194 = DIRECTION ( 'NONE',  ( 1.903218546456021928E-15, 0.8571673007021098911, 0.5150380749100583744 ) ) ;
#195 = CALENDAR_DATE ( 2021, 3, 9 ) ;
#196 = EDGE_LOOP ( 'NONE', ( #107, #129, #251 ) ) ;
#197 = CARTESIAN_POINT ( 'NONE',  ( 0.0000000000000000000, 0.0000000000000000000, 0.0000000000000000000 ) ) ;
#198 = LOCAL_TIME ( 9, 22, 11.00000000000000000, #82 ) ;
#199 = PLANE ( 'NONE',  #93 ) ;
#200 = PRODUCT_RELATED_PRODUCT_CATEGORY ( 'detail', '', ( #137 ) ) ;
#201 = CARTESIAN_POINT ( 'NONE',  ( 3.251735139799734592E-15, -1.140555152429995718E-16, 0.9313339594927245724 ) ) ;
#202 = APPROVAL_STATUS ( 'not_yet_approved' ) ;
#203 = DIRECTION ( 'NONE',  ( -3.491481338843133355E-15, 1.224646799147353207E-16, -1.000000000000000000 ) ) ;
#204 = PERSON_AND_ORGANIZATION ( #79, #67 ) ;
#205 = CARTESIAN_POINT ( 'NONE',  ( 0.0000000000000000000, 0.0000000000000000000, 0.0000000000000000000 ) ) ;
#206 = CIRCLE ( 'NONE', #147, 1.549999999999994937 ) ;
#207 = ORIENTED_EDGE ( 'NONE', *, *, #110, .F. ) ;
#208 = DIRECTION ( 'NONE',  ( -3.491481338843133355E-15, 1.224646799147353207E-16, -1.000000000000000000 ) ) ;
#209 = CARTESIAN_POINT ( 'NONE',  ( 4.888073874380386697E-14, -1.714505518806294638E-15, 14.00000000000000000 ) ) ;
#210 = VECTOR ( 'NONE', #74, 1000.000000000000000 ) ;
#211 = ADVANCED_FACE ( 'NONE', ( #337 ), #275, .T. ) ;
#212 = VERTEX_POINT ( 'NONE', #169 ) ;
#213 = CIRCLE ( 'NONE', #290, 1.549999999999999156 ) ;
#214 = FACE_OUTER_BOUND ( 'NONE', #133, .T. ) ;
#215 = DATE_TIME_ROLE ( 'classification_date' ) ;
#216 = EDGE_CURVE ( 'NONE', #106, #156, #266, .T. ) ;
#217 = ORIENTED_EDGE ( 'NONE', *, *, #110, .T. ) ;
#218 = PERSON_AND_ORGANIZATION ( #79, #67 ) ;
#219 = DIRECTION ( 'NONE',  ( -3.491481338843133355E-15, 1.224646799147353207E-16, -1.000000000000000000 ) ) ;
#220 = VECTOR ( 'NONE', #253, 1000.000000000000000 ) ;
#221 = LOCAL_TIME ( 9, 22, 11.00000000000000000, #264 ) ;
#222 = APPLICATION_PROTOCOL_DEFINITION ( 'international standard', 'config_control_design', 1994, #16 ) ;
#223 = ORIENTED_EDGE ( 'NONE', *, *, #114, .T. ) ;
#224 = CARTESIAN_POINT ( 'NONE',  ( 0.0000000000000000000, 0.0000000000000000000, 0.0000000000000000000 ) ) ;
#225 = ADVANCED_FACE ( 'NONE', ( #143 ), #120, .T. ) ;
#226 = AXIS2_PLACEMENT_3D ( 'NONE', #1, #286, #233 ) ;
#227 = CARTESIAN_POINT ( 'NONE',  ( 1.696859930677762937E-13, -5.951783443856137509E-15, 48.60000000000000142 ) ) ;
#228 = EDGE_LOOP ( 'NONE', ( #162, #38, #217, #241 ) ) ;
#229 = CARTESIAN_POINT ( 'NONE',  ( 3.251735139799734592E-15, -1.140555152429995718E-16, 0.9313339594927245724 ) ) ;
#230 = DATE_AND_TIME ( #138, #179 ) ;
#231 = EDGE_CURVE ( 'NONE', #156, #106, #232, .T. ) ;
#232 = CIRCLE ( 'NONE', #83, 1.549999999999994937 ) ;
#233 = DIRECTION ( 'NONE',  ( 0.0000000000000000000, 1.000000000000000000, 0.0000000000000000000 ) ) ;
#234 = CARTESIAN_POINT ( 'NONE',  ( 1.094731861596577671E-13, -1.550000000000004707, 48.60000000000000142 ) ) ;
#235 =( LENGTH_UNIT ( ) NAMED_UNIT ( * ) SI_UNIT ( .MILLI., .METRE. ) );
#236 = AXIS2_PLACEMENT_3D ( 'NONE', #201, #261, #313 ) ;
#237 = DIRECTION ( 'NONE',  ( -4.275831445896958607E-31, -1.000000000000000000, -1.224646799147353207E-16 ) ) ;
#238 = ORIENTED_EDGE ( 'NONE', *, *, #114, .F. ) ;
#239 = DIRECTION ( 'NONE',  ( -3.491481338843133355E-15, 1.224646799147353207E-16, -1.000000000000000000 ) ) ;
#240 = ORIENTED_EDGE ( 'NONE', *, *, #23, .T. ) ;
#241 = ORIENTED_EDGE ( 'NONE', *, *, #91, .F. ) ;
#242 = CARTESIAN_POINT ( 'NONE',  ( 4.888073874380386697E-14, 1.549999999999993161, 14.00000000000000000 ) ) ;
#243 = ADVANCED_FACE ( 'NONE', ( #141 ), #284, .T. ) ;
#244 = CARTESIAN_POINT ( 'NONE',  ( 4.888073874380386697E-14, 1.162313831562933351E-32, 14.00000000000000000 ) ) ;
#245 = DIRECTION ( 'NONE',  ( -3.491481338843133355E-15, 1.224646799147353207E-16, -1.000000000000000000 ) ) ;
#246 = CLOSED_SHELL ( 'NONE', ( #211, #225, #7, #321, #81, #175 ) ) ;
#247 = ADVANCED_BREP_SHAPE_REPRESENTATION ( '41456', ( #272, #150, #61 ), #25 ) ;
#248 = DATE_AND_TIME ( #295, #193 ) ;
#249 = ORIENTED_EDGE ( 'NONE', *, *, #291, .F. ) ;
#250 = MECHANICAL_CONTEXT ( 'NONE', #16, 'mechanical' ) ;
#251 = ORIENTED_EDGE ( 'NONE', *, *, #182, .T. ) ;
#252 = EDGE_CURVE ( 'NONE', #132, #315, #280, .T. ) ;
#253 = DIRECTION ( 'NONE',  ( -3.491481338843133355E-15, 1.224646799147353207E-16, -1.000000000000000000 ) ) ;
#254 = ORIENTED_EDGE ( 'NONE', *, *, #159, .F. ) ;
#255 = APPLICATION_PROTOCOL_DEFINITION ( 'international standard', 'config_control_design', 1994, #20 ) ;
#256 = CARTESIAN_POINT ( 'NONE',  ( 6.627538741140260529E-31, 1.549999999999994049, 1.898202538678390063E-16 ) ) ;
#257 = CC_DESIGN_DATE_AND_TIME_ASSIGNMENT ( #248, #215, ( #55 ) ) ;
#258 = SECURITY_CLASSIFICATION_LEVEL ( 'unclassified' ) ;
#259 = CLOSED_SHELL ( 'NONE', ( #243, #29, #297, #306, #96 ) ) ;
#260 = VECTOR ( 'NONE', #44, 1000.000000000000000 ) ;
#261 = DIRECTION ( 'NONE',  ( 3.491481338843133355E-15, -1.224646799147353207E-16, 1.000000000000000000 ) ) ;
#262 = CC_DESIGN_PERSON_AND_ORGANIZATION_ASSIGNMENT ( #218, #326, ( #137 ) ) ;
#263 = DIRECTION ( 'NONE',  ( 4.275831445896958607E-31, 1.000000000000000000, 1.224646799147353207E-16 ) ) ;
#264 = COORDINATED_UNIVERSAL_TIME_OFFSET ( 1, 0, .AHEAD. ) ;
#265 = CARTESIAN_POINT ( 'NONE',  ( 4.888073874380386697E-14, 1.162313831562933351E-32, 14.00000000000000000 ) ) ;
#266 = CIRCLE ( 'NONE', #51, 1.549999999999994937 ) ;
#267 = LINE ( 'NONE', #131, #282 ) ;
#268 = CALENDAR_DATE ( 2021, 3, 9 ) ;
#269 = COORDINATED_UNIVERSAL_TIME_OFFSET ( 1, 0, .AHEAD. ) ;
#270 = DIRECTION ( 'NONE',  ( 0.0000000000000000000, 1.000000000000000000, 0.0000000000000000000 ) ) ;
#271 = VECTOR ( 'NONE', #194, 1000.000000000000114 ) ;
#272 = MANIFOLD_SOLID_BREP ( 'Corps-Déplacer/Copier1[1]', #246 ) ;
#273 = PERSON_AND_ORGANIZATION_ROLE ( 'classification_officer' ) ;
#274 = VECTOR ( 'NONE', #47, 1000.000000000000000 ) ;
#275 = CONICAL_SURFACE ( 'NONE', #32, 1.149999999999999245, 0.7853981633974510546 ) ;
#276 = ORIENTED_EDGE ( 'NONE', *, *, #302, .T. ) ;
#277 = UNCERTAINTY_MEASURE_WITH_UNIT (LENGTH_MEASURE( 1.000000000000000082E-05 ), #235, 'distance_accuracy_value', 'NONE');
#278 = ORIENTED_EDGE ( 'NONE', *, *, #91, .T. ) ;
#279 = EDGE_LOOP ( 'NONE', ( #323, #304 ) ) ;
#280 = CIRCLE ( 'NONE', #226, 1.549999999999994937 ) ;
#281 = APPROVAL_ROLE ( '' ) ;
#282 = VECTOR ( 'NONE', #239, 1000.000000000000000 ) ;
#283 = CC_DESIGN_SECURITY_CLASSIFICATION ( #55, ( #8 ) ) ;
#284 = CYLINDRICAL_SURFACE ( 'NONE', #100, 1.549999999999994049 ) ;
#285 = DIRECTION ( 'NONE',  ( -3.491481338843133355E-15, 1.224646799147353207E-16, -1.000000000000000000 ) ) ;
#286 = DIRECTION ( 'NONE',  ( -3.491481338843133355E-15, 1.224646799147353207E-16, -1.000000000000000000 ) ) ;
#287 = CARTESIAN_POINT ( 'NONE',  ( 1.710825856033135470E-13, -6.000769315822030937E-15, 49.00000000000000000 ) ) ;
#288 = APPROVAL_STATUS ( 'not_yet_approved' ) ;
#289 = AXIS2_PLACEMENT_3D ( 'NONE', #75, #122, #125 ) ;
#290 = AXIS2_PLACEMENT_3D ( 'NONE', #227, #301, #87 ) ;
#291 = EDGE_CURVE ( 'NONE', #212, #161, #310, .T. ) ;
#292 = APPROVAL_PERSON_ORGANIZATION ( #336, #331, #294 ) ;
#293 = LINE ( 'NONE', #124, #260 ) ;
#294 = APPROVAL_ROLE ( '' ) ;
#295 = CALENDAR_DATE ( 2021, 3, 9 ) ;
#296 = CARTESIAN_POINT ( 'NONE',  ( 1.094731861596578807E-13, -1.549999999999996714, 14.00000000000000000 ) ) ;
#297 = ADVANCED_FACE ( 'NONE', ( #10 ), #18, .T. ) ;
#298 = DIRECTION ( 'NONE',  ( -3.491481338843133355E-15, 1.224646799147353207E-16, -1.000000000000000000 ) ) ;
#299 = CARTESIAN_POINT ( 'NONE',  ( 6.627538741140273666E-31, 1.549999999999997158, 1.898202538678394008E-16 ) ) ;
#300 = APPROVAL_PERSON_ORGANIZATION ( #316, #102, #50 ) ;
#301 = DIRECTION ( 'NONE',  ( -3.491481338843133355E-15, 1.224646799147353207E-16, -1.000000000000000000 ) ) ;
#302 = EDGE_CURVE ( 'NONE', #315, #132, #206, .T. ) ;
#303 = CIRCLE ( 'NONE', #88, 1.549999999999993383 ) ;
#304 = ORIENTED_EDGE ( 'NONE', *, *, #216, .T. ) ;
#305 = ORIENTED_EDGE ( 'NONE', *, *, #216, .F. ) ;
#306 = ADVANCED_FACE ( 'NONE', ( #58 ), #324, .T. ) ;
#307 = DIRECTION ( 'NONE',  ( -3.491481338843133355E-15, 1.224646799147353207E-16, -1.000000000000000000 ) ) ;
#308 = DIRECTION ( 'NONE',  ( 0.0000000000000000000, 1.000000000000000000, 0.0000000000000000000 ) ) ;
#309 = DIRECTION ( 'NONE',  ( -4.275831445896958607E-31, -1.000000000000000000, -1.224646799147353207E-16 ) ) ;
#310 = CIRCLE ( 'NONE', #168, 1.549999999999993383 ) ;
#311 = CARTESIAN_POINT ( 'NONE',  ( 1.710825856033135470E-13, 1.149999999999993250, 49.00000000000000000 ) ) ;
#312 = LINE ( 'NONE', #45, #210 ) ;
#313 = DIRECTION ( 'NONE',  ( -4.970141791967081907E-31, -1.000000000000000000, -1.398970545142592458E-16 ) ) ;
#314 = APPROVAL ( #90, 'UNSPECIFIED' ) ;
#315 = VERTEX_POINT ( 'NONE', #242 ) ;
#316 = PERSON_AND_ORGANIZATION ( #79, #67 ) ;
#317 = CIRCLE ( 'NONE', #327, 1.549999999999999156 ) ;
#318 = DIRECTION ( 'NONE',  ( -3.491481338843133355E-15, 1.224646799147353207E-16, -1.000000000000000000 ) ) ;
#319 = FACE_OUTER_BOUND ( 'NONE', #42, .T. ) ;
#320 = ORIENTED_EDGE ( 'NONE', *, *, #159, .T. ) ;
#321 = ADVANCED_FACE ( 'NONE', ( #214 ), #12, .T. ) ;
#322 = ORIENTED_EDGE ( 'NONE', *, *, #86, .T. ) ;
#323 = ORIENTED_EDGE ( 'NONE', *, *, #231, .T. ) ;
#324 = CYLINDRICAL_SURFACE ( 'NONE', #164, 1.549999999999994049 ) ;
#325 = CARTESIAN_POINT ( 'NONE',  ( 3.251735139799734592E-15, -1.140555152429995718E-16, 0.9313339594927245724 ) ) ;
#326 = PERSON_AND_ORGANIZATION_ROLE ( 'design_owner' ) ;
#327 = AXIS2_PLACEMENT_3D ( 'NONE', #36, #298, #14 ) ;
#328 = CARTESIAN_POINT ( 'NONE',  ( 3.251735139799733803E-15, -1.549999999999993605, 0.9313339594927243503 ) ) ;
#329 = AXIS2_PLACEMENT_3D ( 'NONE', #205, #245, #84 ) ;
#330 = VERTEX_POINT ( 'NONE', #181 ) ;
#331 = APPROVAL ( #288, 'UNSPECIFIED' ) ;
#332 = EDGE_LOOP ( 'NONE', ( #37, #184, #60, #207 ) ) ;
#333 = DIRECTION ( 'NONE',  ( 1.000000000000000000, 0.0000000000000000000, 0.0000000000000000000 ) ) ;
#334 = CC_DESIGN_APPROVAL ( #102, ( #8 ) ) ;
#335 = CARTESIAN_POINT ( 'NONE',  ( 1.710825856033135470E-13, -6.000769315822030937E-15, 49.00000000000000000 ) ) ;
#336 = PERSON_AND_ORGANIZATION ( #79, #67 ) ;
#337 = FACE_OUTER_BOUND ( 'NONE', #332, .T. ) ;
ENDSEC;
END-ISO-10303-21;
