ISO-10303-21;
HEADER;
FILE_DESCRIPTION (( 'STEP AP203' ),
    '1' );
FILE_NAME ('41455.step',
    '2021-10-15T13:34:47',
    ( '' ),
    ( '' ),
    'SwSTEP 2.0',
    'SolidWorks 2019',
    '' );
FILE_SCHEMA (( 'CONFIG_CONTROL_DESIGN' ));
ENDSEC;

DATA;
#1 = ORIENTED_EDGE ( 'NONE', *, *, #191, .T. ) ;
#2 = LOCAL_TIME ( 15, 34, 47.00000000000000000, #141 ) ;
#3 = EDGE_LOOP ( 'NONE', ( #6 ) ) ;
#4 = ADVANCED_FACE ( 'NONE', ( #174, #88 ), #73, .T. ) ;
#5 = ORIENTED_EDGE ( 'NONE', *, *, #142, .F. ) ;
#6 = ORIENTED_EDGE ( 'NONE', *, *, #65, .F. ) ;
#7 = CYLINDRICAL_SURFACE ( 'NONE', #200, 2.549999999999999822 ) ;
#8 = AXIS2_PLACEMENT_3D ( 'NONE', #91, #176, #163 ) ;
#9 = DIRECTION ( 'NONE',  ( 3.491481338843133355E-15, -1.224646799147353207E-16, 1.000000000000000000 ) ) ;
#10 = CARTESIAN_POINT ( 'NONE',  ( 9.077851480992146724E-14, -3.184081677783118191E-15, 26.00000000000000000 ) ) ;
#11 = DIRECTION ( 'NONE',  ( -3.491481338843133355E-15, 1.224646799147353207E-16, -1.000000000000000000 ) ) ;
#12 = AXIS2_PLACEMENT_3D ( 'NONE', #180, #43, #151 ) ;
#13 = DIRECTION ( 'NONE',  ( 0.0000000000000000000, 1.000000000000000000, 0.0000000000000000000 ) ) ;
#14 = ADVANCED_BREP_SHAPE_REPRESENTATION ( '41455', ( #46, #179, #158 ), #52 ) ;
#15 = PERSON_AND_ORGANIZATION_ROLE ( 'design_supplier' ) ;
#16 = PRODUCT_DEFINITION_FORMATION_WITH_SPECIFIED_SOURCE ( 'ANY', '', #129, .NOT_KNOWN. ) ;
#17 = PERSON_AND_ORGANIZATION ( #70, #188 ) ;
#18 = APPROVAL_STATUS ( 'not_yet_approved' ) ;
#19 = CALENDAR_DATE ( 2021, 15, 10 ) ;
#20 = UNCERTAINTY_MEASURE_WITH_UNIT (LENGTH_MEASURE( 1.000000000000000082E-05 ), #55, 'distance_accuracy_value', 'NONE');
#21 = EDGE_LOOP ( 'NONE', ( #5 ) ) ;
#22 = APPLICATION_CONTEXT ( 'configuration controlled 3d designs of mechanical parts and assemblies' ) ;
#23 = CARTESIAN_POINT ( 'NONE',  ( 9.077851480992146724E-14, 2.549999999999994493, 26.00000000000000000 ) ) ;
#24 = AXIS2_PLACEMENT_3D ( 'NONE', #39, #138, #13 ) ;
#25 = VERTEX_POINT ( 'NONE', #150 ) ;
#26 = VERTEX_POINT ( 'NONE', #40 ) ;
#27 = LOCAL_TIME ( 15, 34, 47.00000000000000000, #171 ) ;
#28 = CONICAL_SURFACE ( 'NONE', #136, 2.549999999999994493, 1.221730476396026388 ) ;
#29 = CARTESIAN_POINT ( 'NONE',  ( 0.0000000000000000000, 0.0000000000000000000, 0.0000000000000000000 ) ) ;
#30 = APPROVAL_ROLE ( '' ) ;
#31 = DATE_AND_TIME ( #19, #101 ) ;
#32 = DATE_AND_TIME ( #127, #173 ) ;
#33 = ADVANCED_FACE ( 'NONE', ( #68, #36 ), #7, .T. ) ;
#34 = EDGE_LOOP ( 'NONE', ( #67 ) ) ;
#35 = EDGE_LOOP ( 'NONE', ( #86 ) ) ;
#36 = FACE_OUTER_BOUND ( 'NONE', #144, .T. ) ;
#37 = AXIS2_PLACEMENT_3D ( 'NONE', #165, #178, #53 ) ;
#38 = CARTESIAN_POINT ( 'NONE',  ( 3.240527966128799010E-15, -1.136624205066506152E-16, 0.9281240973788262849 ) ) ;
#39 = CARTESIAN_POINT ( 'NONE',  ( 2.147261023388527077E-13, -7.531577814756222656E-15, 61.50000000000000000 ) ) ;
#40 = CARTESIAN_POINT ( 'NONE',  ( 9.077851480992146724E-14, 2.549999999999994493, 26.00000000000000000 ) ) ;
#41 = AXIS2_PLACEMENT_3D ( 'NONE', #104, #177, #51 ) ;
#42 = DIRECTION ( 'NONE',  ( -3.491481338843133355E-15, 1.224646799147353207E-16, -1.000000000000000000 ) ) ;
#43 = DIRECTION ( 'NONE',  ( -3.491481338843133355E-15, 1.224646799147353207E-16, -1.000000000000000000 ) ) ;
#44 = PERSON_AND_ORGANIZATION ( #70, #188 ) ;
#45 = CALENDAR_DATE ( 2021, 15, 10 ) ;
#46 = MANIFOLD_SOLID_BREP ( 'Corps-Déplacer/Copier1[1]', #125 ) ;
#47 = AXIS2_PLACEMENT_3D ( 'NONE', #95, #193, #50 ) ;
#48 = APPROVAL_ROLE ( '' ) ;
#49 = EDGE_LOOP ( 'NONE', ( #156 ) ) ;
#50 = DIRECTION ( 'NONE',  ( -4.275831445896958607E-31, -1.000000000000000000, -1.224646799147353207E-16 ) ) ;
#51 = DIRECTION ( 'NONE',  ( -4.275831445896958607E-31, -1.000000000000000000, -1.224646799147353207E-16 ) ) ;
#52 =( GEOMETRIC_REPRESENTATION_CONTEXT ( 3 ) GLOBAL_UNCERTAINTY_ASSIGNED_CONTEXT ( ( #20 ) ) GLOBAL_UNIT_ASSIGNED_CONTEXT ( ( #55, #146, #72 ) ) REPRESENTATION_CONTEXT ( 'NONE', 'WORKASPACE' ) );
#53 = DIRECTION ( 'NONE',  ( 4.275831445896958607E-31, 1.000000000000000000, 1.224646799147353207E-16 ) ) ;
#54 = AXIS2_PLACEMENT_3D ( 'NONE', #145, #135, #192 ) ;
#55 =( LENGTH_UNIT ( ) NAMED_UNIT ( * ) SI_UNIT ( .MILLI., .METRE. ) );
#56 = DATE_AND_TIME ( #113, #92 ) ;
#57 = APPROVAL_DATE_TIME ( #32, #184 ) ;
#58 = CC_DESIGN_PERSON_AND_ORGANIZATION_ASSIGNMENT ( #109, #128, ( #94 ) ) ;
#59 = PERSON_AND_ORGANIZATION ( #70, #188 ) ;
#60 = DIRECTION ( 'NONE',  ( 0.0000000000000000000, 0.0000000000000000000, 1.000000000000000000 ) ) ;
#61 = CC_DESIGN_APPROVAL ( #201, ( #16 ) ) ;
#62 = DATE_TIME_ROLE ( 'creation_date' ) ;
#63 = AXIS2_PLACEMENT_3D ( 'NONE', #10, #42, #105 ) ;
#64 = DIRECTION ( 'NONE',  ( -3.491481338843133355E-15, 1.224646799147353207E-16, -1.000000000000000000 ) ) ;
#65 = EDGE_CURVE ( 'NONE', #120, #120, #134, .T. ) ;
#66 = SECURITY_CLASSIFICATION ( '', '', #97 ) ;
#67 = ORIENTED_EDGE ( 'NONE', *, *, #98, .T. ) ;
#68 = FACE_OUTER_BOUND ( 'NONE', #3, .T. ) ;
#69 = EDGE_LOOP ( 'NONE', ( #1 ) ) ;
#70 = PERSON ( 'UNSPECIFIED', 'UNSPECIFIED', 'UNSPECIFIED', ('UNSPECIFIED'), ('UNSPECIFIED'), ('UNSPECIFIED') ) ;
#71 = ORIENTED_EDGE ( 'NONE', *, *, #106, .F. ) ;
#72 =( NAMED_UNIT ( * ) SI_UNIT ( $, .STERADIAN. ) SOLID_ANGLE_UNIT ( ) );
#73 = CONICAL_SURFACE ( 'NONE', #54, 2.050000000000002487, 0.7853981633974473908 ) ;
#74 = ADVANCED_FACE ( 'NONE', ( #77 ), #126, .F. ) ;
#75 = CARTESIAN_POINT ( 'NONE',  ( 2.147261023388527077E-13, 2.549999999999994493, 61.50000000000000000 ) ) ;
#76 = APPROVAL ( #183, 'UNSPECIFIED' ) ;
#77 = FACE_OUTER_BOUND ( 'NONE', #35, .T. ) ;
#78 = CYLINDRICAL_SURFACE ( 'NONE', #157, 2.549999999999995826 ) ;
#79 = FACE_OUTER_BOUND ( 'NONE', #87, .T. ) ;
#80 = CARTESIAN_POINT ( 'NONE',  ( 0.0000000000000000000, 0.0000000000000000000, 0.0000000000000000000 ) ) ;
#81 = PRODUCT_RELATED_PRODUCT_CATEGORY ( 'detail', '', ( #129 ) ) ;
#82 = PERSON_AND_ORGANIZATION ( #70, #188 ) ;
#83 = CC_DESIGN_PERSON_AND_ORGANIZATION_ASSIGNMENT ( #197, #114, ( #66 ) ) ;
#84 = PERSON_AND_ORGANIZATION ( #70, #188 ) ;
#85 = ORIENTED_EDGE ( 'NONE', *, *, #98, .F. ) ;
#86 = ORIENTED_EDGE ( 'NONE', *, *, #65, .T. ) ;
#87 = EDGE_LOOP ( 'NONE', ( #118 ) ) ;
#88 = FACE_BOUND ( 'NONE', #69, .T. ) ;
#89 = CARTESIAN_POINT ( 'NONE',  ( 9.077851480992146724E-14, -3.184081677783118191E-15, 26.00000000000000000 ) ) ;
#90 = CC_DESIGN_DATE_AND_TIME_ASSIGNMENT ( #31, #62, ( #94 ) ) ;
#91 = CARTESIAN_POINT ( 'NONE',  ( 2.164718430082742680E-13, -7.592810154713590230E-15, 62.00000000000000000 ) ) ;
#92 = LOCAL_TIME ( 15, 34, 47.00000000000000000, #181 ) ;
#93 = FACE_OUTER_BOUND ( 'NONE', #49, .T. ) ;
#94 = PRODUCT_DEFINITION ( 'UNKNOWN', '', #16, #115 ) ;
#95 = CARTESIAN_POINT ( 'NONE',  ( 9.077851480992146724E-14, 1.912193722893862155E-32, 26.00000000000000000 ) ) ;
#96 = APPROVAL_ROLE ( '' ) ;
#97 = SECURITY_CLASSIFICATION_LEVEL ( 'unclassified' ) ;
#98 = EDGE_CURVE ( 'NONE', #26, #26, #143, .T. ) ;
#99 = DATE_AND_TIME ( #45, #27 ) ;
#100 = FACE_OUTER_BOUND ( 'NONE', #133, .T. ) ;
#101 = LOCAL_TIME ( 15, 34, 47.00000000000000000, #186 ) ;
#102 = CC_DESIGN_APPROVAL ( #76, ( #66 ) ) ;
#103 = DIRECTION ( 'NONE',  ( -3.491481338843133355E-15, 1.224646799147353207E-16, -1.000000000000000000 ) ) ;
#104 = CARTESIAN_POINT ( 'NONE',  ( 9.077851480992146724E-14, 1.912193722893862155E-32, 26.00000000000000000 ) ) ;
#105 = DIRECTION ( 'NONE',  ( 0.0000000000000000000, 1.000000000000000000, 0.0000000000000000000 ) ) ;
#106 = EDGE_CURVE ( 'NONE', #25, #25, #187, .T. ) ;
#107 = PRODUCT_DEFINITION_SHAPE ( 'NONE', 'NONE',  #94 ) ;
#108 = CC_DESIGN_PERSON_AND_ORGANIZATION_ASSIGNMENT ( #203, #185, ( #16 ) ) ;
#109 = PERSON_AND_ORGANIZATION ( #70, #188 ) ;
#110 = MECHANICAL_CONTEXT ( 'NONE', #22, 'mechanical' ) ;
#111 = CC_DESIGN_PERSON_AND_ORGANIZATION_ASSIGNMENT ( #82, #15, ( #16 ) ) ;
#112 = APPROVAL_DATE_TIME ( #99, #76 ) ;
#113 = CALENDAR_DATE ( 2021, 15, 10 ) ;
#114 = PERSON_AND_ORGANIZATION_ROLE ( 'classification_officer' ) ;
#115 = DESIGN_CONTEXT ( 'detailed design', #116, 'design' ) ;
#116 = APPLICATION_CONTEXT ( 'configuration controlled 3d designs of mechanical parts and assemblies' ) ;
#117 = CARTESIAN_POINT ( 'NONE',  ( 0.0000000000000000000, 0.0000000000000000000, 0.0000000000000000000 ) ) ;
#118 = ORIENTED_EDGE ( 'NONE', *, *, #106, .T. ) ;
#119 = ORIENTED_EDGE ( 'NONE', *, *, #142, .T. ) ;
#120 = VERTEX_POINT ( 'NONE', #23 ) ;
#121 = PLANE ( 'NONE',  #37 ) ;
#122 = PLANE ( 'NONE',  #47 ) ;
#123 = ADVANCED_FACE ( 'NONE', ( #93 ), #121, .F. ) ;
#124 = FACE_OUTER_BOUND ( 'NONE', #34, .T. ) ;
#125 = CLOSED_SHELL ( 'NONE', ( #74, #33, #4, #123 ) ) ;
#126 = PLANE ( 'NONE',  #41 ) ;
#127 = CALENDAR_DATE ( 2021, 15, 10 ) ;
#128 = PERSON_AND_ORGANIZATION_ROLE ( 'creator' ) ;
#129 = PRODUCT ( '41455', '41455', '', ( #110 ) ) ;
#130 = APPROVAL_STATUS ( 'not_yet_approved' ) ;
#131 = EDGE_LOOP ( 'NONE', ( #85 ) ) ;
#132 = CC_DESIGN_APPROVAL ( #184, ( #94 ) ) ;
#133 = EDGE_LOOP ( 'NONE', ( #71 ) ) ;
#134 = CIRCLE ( 'NONE', #63, 2.549999999999997602 ) ;
#135 = DIRECTION ( 'NONE',  ( -3.491481338843133355E-15, 1.224646799147353207E-16, -1.000000000000000000 ) ) ;
#136 = AXIS2_PLACEMENT_3D ( 'NONE', #38, #9, #162 ) ;
#137 = CC_DESIGN_DATE_AND_TIME_ASSIGNMENT ( #155, #199, ( #66 ) ) ;
#138 = DIRECTION ( 'NONE',  ( -3.491481338843133355E-15, 1.224646799147353207E-16, -1.000000000000000000 ) ) ;
#139 = VERTEX_POINT ( 'NONE', #75 ) ;
#140 = PERSON_AND_ORGANIZATION_ROLE ( 'design_owner' ) ;
#141 = COORDINATED_UNIVERSAL_TIME_OFFSET ( 1, 0, .AHEAD. ) ;
#142 = EDGE_CURVE ( 'NONE', #139, #139, #152, .T. ) ;
#143 = CIRCLE ( 'NONE', #161, 2.549999999999997602 ) ;
#144 = EDGE_LOOP ( 'NONE', ( #119 ) ) ;
#145 = CARTESIAN_POINT ( 'NONE',  ( 2.164718430082742680E-13, -7.592810154713590230E-15, 62.00000000000000000 ) ) ;
#146 =( NAMED_UNIT ( * ) PLANE_ANGLE_UNIT ( ) SI_UNIT ( $, .RADIAN. ) );
#147 = DIRECTION ( 'NONE',  ( 0.0000000000000000000, 1.000000000000000000, 0.0000000000000000000 ) ) ;
#148 = DIRECTION ( 'NONE',  ( 4.275831445896958607E-31, 1.000000000000000000, 1.224646799147353207E-16 ) ) ;
#149 = APPROVAL_PERSON_ORGANIZATION ( #17, #184, #96 ) ;
#150 = CARTESIAN_POINT ( 'NONE',  ( 3.240527966128800193E-15, 2.549999999999994493, 0.9281240973788266180 ) ) ;
#151 = DIRECTION ( 'NONE',  ( 4.531599869146447038E-31, 1.000000000000000000, 1.275531967630007957E-16 ) ) ;
#152 = CIRCLE ( 'NONE', #24, 2.550000000000002043 ) ;
#153 = CALENDAR_DATE ( 2021, 15, 10 ) ;
#154 = APPROVAL_PERSON_ORGANIZATION ( #84, #201, #30 ) ;
#155 = DATE_AND_TIME ( #153, #2 ) ;
#156 = ORIENTED_EDGE ( 'NONE', *, *, #191, .F. ) ;
#157 = AXIS2_PLACEMENT_3D ( 'NONE', #29, #103, #148 ) ;
#158 = AXIS2_PLACEMENT_3D ( 'NONE', #80, #60, #169 ) ;
#159 = CC_DESIGN_SECURITY_CLASSIFICATION ( #66, ( #16 ) ) ;
#160 = CC_DESIGN_PERSON_AND_ORGANIZATION_ASSIGNMENT ( #44, #140, ( #129 ) ) ;
#161 = AXIS2_PLACEMENT_3D ( 'NONE', #89, #11, #147 ) ;
#162 = DIRECTION ( 'NONE',  ( -4.531599869146447038E-31, -1.000000000000000000, -1.275531967630007957E-16 ) ) ;
#163 = DIRECTION ( 'NONE',  ( 0.0000000000000000000, 1.000000000000000000, 0.0000000000000000000 ) ) ;
#164 = FACE_OUTER_BOUND ( 'NONE', #131, .T. ) ;
#165 = CARTESIAN_POINT ( 'NONE',  ( 2.164718430082742680E-13, 1.537253777228393921E-32, 62.00000000000000000 ) ) ;
#166 = CIRCLE ( 'NONE', #8, 2.050000000000002487 ) ;
#167 = APPROVAL_DATE_TIME ( #56, #201 ) ;
#168 = COORDINATED_UNIVERSAL_TIME_OFFSET ( 1, 0, .AHEAD. ) ;
#169 = DIRECTION ( 'NONE',  ( 1.000000000000000000, 0.0000000000000000000, 0.0000000000000000000 ) ) ;
#170 = SHAPE_DEFINITION_REPRESENTATION ( #107, #14 ) ;
#171 = COORDINATED_UNIVERSAL_TIME_OFFSET ( 1, 0, .AHEAD. ) ;
#172 = ADVANCED_FACE ( 'NONE', ( #100, #124 ), #78, .T. ) ;
#173 = LOCAL_TIME ( 15, 34, 47.00000000000000000, #168 ) ;
#174 = FACE_OUTER_BOUND ( 'NONE', #21, .T. ) ;
#175 = ADVANCED_FACE ( 'NONE', ( #79 ), #28, .T. ) ;
#176 = DIRECTION ( 'NONE',  ( -3.491481338843133355E-15, 1.224646799147353207E-16, -1.000000000000000000 ) ) ;
#177 = DIRECTION ( 'NONE',  ( 3.491481338843133355E-15, -1.224646799147353207E-16, 1.000000000000000000 ) ) ;
#178 = DIRECTION ( 'NONE',  ( -3.491481338843133355E-15, 1.224646799147353207E-16, -1.000000000000000000 ) ) ;
#179 = MANIFOLD_SOLID_BREP ( 'Corps-Déplacer/Copier1[2]', #190 ) ;
#180 = CARTESIAN_POINT ( 'NONE',  ( 3.240527966128799010E-15, -1.136624205066506152E-16, 0.9281240973788262849 ) ) ;
#181 = COORDINATED_UNIVERSAL_TIME_OFFSET ( 1, 0, .AHEAD. ) ;
#182 = APPLICATION_PROTOCOL_DEFINITION ( 'international standard', 'config_control_design', 1994, #22 ) ;
#183 = APPROVAL_STATUS ( 'not_yet_approved' ) ;
#184 = APPROVAL ( #18, 'UNSPECIFIED' ) ;
#185 = PERSON_AND_ORGANIZATION_ROLE ( 'creator' ) ;
#186 = COORDINATED_UNIVERSAL_TIME_OFFSET ( 1, 0, .AHEAD. ) ;
#187 = CIRCLE ( 'NONE', #12, 2.549999999999994493 ) ;
#188 = ORGANIZATION ( 'UNSPECIFIED', 'UNSPECIFIED', '' ) ;
#189 = DIRECTION ( 'NONE',  ( 4.275831445896958607E-31, 1.000000000000000000, 1.224646799147353207E-16 ) ) ;
#190 = CLOSED_SHELL ( 'NONE', ( #175, #172, #195 ) ) ;
#191 = EDGE_CURVE ( 'NONE', #196, #196, #166, .T. ) ;
#192 = DIRECTION ( 'NONE',  ( 0.0000000000000000000, 1.000000000000000000, 0.0000000000000000000 ) ) ;
#193 = DIRECTION ( 'NONE',  ( 3.491481338843133355E-15, -1.224646799147353207E-16, 1.000000000000000000 ) ) ;
#194 = CARTESIAN_POINT ( 'NONE',  ( 2.164718430082742680E-13, 2.049999999999994493, 62.00000000000000000 ) ) ;
#195 = ADVANCED_FACE ( 'NONE', ( #164 ), #122, .T. ) ;
#196 = VERTEX_POINT ( 'NONE', #194 ) ;
#197 = PERSON_AND_ORGANIZATION ( #70, #188 ) ;
#198 = APPLICATION_PROTOCOL_DEFINITION ( 'international standard', 'config_control_design', 1994, #116 ) ;
#199 = DATE_TIME_ROLE ( 'classification_date' ) ;
#200 = AXIS2_PLACEMENT_3D ( 'NONE', #117, #64, #189 ) ;
#201 = APPROVAL ( #130, 'UNSPECIFIED' ) ;
#202 = APPROVAL_PERSON_ORGANIZATION ( #59, #76, #48 ) ;
#203 = PERSON_AND_ORGANIZATION ( #70, #188 ) ;
ENDSEC;
END-ISO-10303-21;
