ISO-10303-21;
HEADER;
FILE_DESCRIPTION (( 'STEP AP203' ),
    '1' );
FILE_NAME ('41454.step',
    '2021-10-15T13:34:47',
    ( '' ),
    ( '' ),
    'SwSTEP 2.0',
    'SolidWorks 2019',
    '' );
FILE_SCHEMA (( 'CONFIG_CONTROL_DESIGN' ));
ENDSEC;

DATA;
#1 = DIRECTION ( 'NONE',  ( 0.0000000000000000000, 1.000000000000000000, 0.0000000000000000000 ) ) ;
#2 = CIRCLE ( 'NONE', #192, 0.8999999999999974687 ) ;
#3 = FACE_OUTER_BOUND ( 'NONE', #116, .T. ) ;
#4 = COORDINATED_UNIVERSAL_TIME_OFFSET ( 1, 0, .AHEAD. ) ;
#5 = APPROVAL_ROLE ( '' ) ;
#6 = DATE_AND_TIME ( #158, #108 ) ;
#7 = APPROVAL_PERSON_ORGANIZATION ( #67, #62, #194 ) ;
#8 = ORIENTED_EDGE ( 'NONE', *, *, #39, .F. ) ;
#9 = ORIENTED_EDGE ( 'NONE', *, *, #45, .T. ) ;
#10 = CC_DESIGN_PERSON_AND_ORGANIZATION_ASSIGNMENT ( #99, #127, ( #92 ) ) ;
#11 = PLANE ( 'NONE',  #181 ) ;
#12 = FACE_OUTER_BOUND ( 'NONE', #134, .T. ) ;
#13 = UNCERTAINTY_MEASURE_WITH_UNIT (LENGTH_MEASURE( 1.000000000000000082E-05 ), #96, 'distance_accuracy_value', 'NONE');
#14 = FACE_OUTER_BOUND ( 'NONE', #36, .T. ) ;
#15 = CARTESIAN_POINT ( 'NONE',  ( 1.501336975702547217E-13, 0.8999999999999921396, 43.00000000000000000 ) ) ;
#16 = LOCAL_TIME ( 15, 34, 47.00000000000000000, #98 ) ;
#17 = PERSON_AND_ORGANIZATION ( #88, #179 ) ;
#18 = COORDINATED_UNIVERSAL_TIME_OFFSET ( 1, 0, .AHEAD. ) ;
#19 = COORDINATED_UNIVERSAL_TIME_OFFSET ( 1, 0, .AHEAD. ) ;
#20 = ADVANCED_FACE ( 'NONE', ( #164, #24 ), #102, .T. ) ;
#21 = PERSON_AND_ORGANIZATION_ROLE ( 'design_supplier' ) ;
#22 = PERSON_AND_ORGANIZATION ( #88, #179 ) ;
#23 = CARTESIAN_POINT ( 'NONE',  ( 1.489116791016596092E-13, -5.223118598363460537E-15, 42.64999999999999147 ) ) ;
#24 = FACE_OUTER_BOUND ( 'NONE', #41, .T. ) ;
#25 = DIRECTION ( 'NONE',  ( -3.491481338843133355E-15, 1.224646799147353207E-16, -1.000000000000000000 ) ) ;
#26 = ORIENTED_EDGE ( 'NONE', *, *, #199, .F. ) ;
#27 = CARTESIAN_POINT ( 'NONE',  ( 1.501336975702547217E-13, -5.265981236333618470E-15, 43.00000000000000000 ) ) ;
#28 = FACE_BOUND ( 'NONE', #183, .T. ) ;
#29 = CARTESIAN_POINT ( 'NONE',  ( 4.888073874380386697E-14, -1.714505518806294638E-15, 14.00000000000000000 ) ) ;
#30 = VERTEX_POINT ( 'NONE', #151 ) ;
#31 = APPROVAL_DATE_TIME ( #66, #123 ) ;
#32 = DIRECTION ( 'NONE',  ( 0.0000000000000000000, 0.0000000000000000000, 1.000000000000000000 ) ) ;
#33 = AXIS2_PLACEMENT_3D ( 'NONE', #29, #136, #190 ) ;
#34 = CC_DESIGN_PERSON_AND_ORGANIZATION_ASSIGNMENT ( #17, #159, ( #131 ) ) ;
#35 = PRODUCT_DEFINITION_SHAPE ( 'NONE', 'NONE',  #131 ) ;
#36 = EDGE_LOOP ( 'NONE', ( #8 ) ) ;
#37 = ORIENTED_EDGE ( 'NONE', *, *, #45, .F. ) ;
#38 = AXIS2_PLACEMENT_3D ( 'NONE', #142, #32, #141 ) ;
#39 = EDGE_CURVE ( 'NONE', #95, #95, #76, .T. ) ;
#40 = ORIENTED_EDGE ( 'NONE', *, *, #199, .T. ) ;
#41 = EDGE_LOOP ( 'NONE', ( #9 ) ) ;
#42 = CLOSED_SHELL ( 'NONE', ( #186, #203, #150, #106 ) ) ;
#43 = DIRECTION ( 'NONE',  ( -3.491481338843133355E-15, 1.224646799147353207E-16, -1.000000000000000000 ) ) ;
#44 = VERTEX_POINT ( 'NONE', #15 ) ;
#45 = EDGE_CURVE ( 'NONE', #30, #30, #65, .T. ) ;
#46 = DIRECTION ( 'NONE',  ( 0.0000000000000000000, 1.000000000000000000, 0.0000000000000000000 ) ) ;
#47 = APPROVAL_ROLE ( '' ) ;
#48 = CALENDAR_DATE ( 2021, 15, 10 ) ;
#49 = LOCAL_TIME ( 15, 34, 47.00000000000000000, #18 ) ;
#50 = COORDINATED_UNIVERSAL_TIME_OFFSET ( 1, 0, .AHEAD. ) ;
#51 = ORIENTED_EDGE ( 'NONE', *, *, #196, .T. ) ;
#52 = ADVANCED_FACE ( 'NONE', ( #118 ), #11, .T. ) ;
#53 = ORIENTED_EDGE ( 'NONE', *, *, #196, .F. ) ;
#54 = AXIS2_PLACEMENT_3D ( 'NONE', #200, #56, #162 ) ;
#55 = EDGE_LOOP ( 'NONE', ( #147 ) ) ;
#56 = DIRECTION ( 'NONE',  ( -3.491481338843133355E-15, 1.224646799147353207E-16, -1.000000000000000000 ) ) ;
#57 = CARTESIAN_POINT ( 'NONE',  ( 4.888073874380386697E-14, 9.373498641636537521E-33, 14.00000000000000000 ) ) ;
#58 = CC_DESIGN_DATE_AND_TIME_ASSIGNMENT ( #6, #177, ( #131 ) ) ;
#59 = AXIS2_PLACEMENT_3D ( 'NONE', #94, #201, #63 ) ;
#60 = CARTESIAN_POINT ( 'NONE',  ( 1.588494101043521726E-15, -5.571687279737749175E-17, 0.4549627928327559245 ) ) ;
#61 = CARTESIAN_POINT ( 'NONE',  ( 4.888073874380386697E-14, 1.249999999999992006, 14.00000000000000000 ) ) ;
#62 = APPROVAL ( #111, 'UNSPECIFIED' ) ;
#63 = DIRECTION ( 'NONE',  ( -4.275831445896958607E-31, -1.000000000000000000, -1.224646799147353207E-16 ) ) ;
#64 = CC_DESIGN_APPROVAL ( #123, ( #92 ) ) ;
#65 = CIRCLE ( 'NONE', #173, 1.249999999999993783 ) ;
#66 = DATE_AND_TIME ( #175, #91 ) ;
#67 = PERSON_AND_ORGANIZATION ( #88, #179 ) ;
#68 = APPROVAL_PERSON_ORGANIZATION ( #69, #161, #5 ) ;
#69 = PERSON_AND_ORGANIZATION ( #88, #179 ) ;
#70 = CC_DESIGN_PERSON_AND_ORGANIZATION_ASSIGNMENT ( #71, #176, ( #163 ) ) ;
#71 = PERSON_AND_ORGANIZATION ( #88, #179 ) ;
#72 = PRODUCT ( '41454', '41454', '', ( #160 ) ) ;
#73 = EDGE_CURVE ( 'NONE', #187, #187, #93, .T. ) ;
#74 = APPLICATION_CONTEXT ( 'configuration controlled 3d designs of mechanical parts and assemblies' ) ;
#75 = ORIENTED_EDGE ( 'NONE', *, *, #73, .T. ) ;
#76 = CIRCLE ( 'NONE', #122, 1.249999999999997113 ) ;
#77 = APPROVAL_PERSON_ORGANIZATION ( #195, #123, #47 ) ;
#78 = CC_DESIGN_PERSON_AND_ORGANIZATION_ASSIGNMENT ( #22, #100, ( #72 ) ) ;
#79 = DIRECTION ( 'NONE',  ( -3.491481338843133355E-15, 1.224646799147353207E-16, -1.000000000000000000 ) ) ;
#80 = DIRECTION ( 'NONE',  ( -3.491481338843133355E-15, 1.224646799147353207E-16, -1.000000000000000000 ) ) ;
#81 = PLANE ( 'NONE',  #189 ) ;
#82 = AXIS2_PLACEMENT_3D ( 'NONE', #97, #138, #168 ) ;
#83 = CALENDAR_DATE ( 2021, 15, 10 ) ;
#84 = DATE_TIME_ROLE ( 'classification_date' ) ;
#85 = SHAPE_DEFINITION_REPRESENTATION ( #35, #191 ) ;
#86 = APPLICATION_PROTOCOL_DEFINITION ( 'international standard', 'config_control_design', 1994, #165 ) ;
#87 = DATE_AND_TIME ( #143, #49 ) ;
#88 = PERSON ( 'UNSPECIFIED', 'UNSPECIFIED', 'UNSPECIFIED', ('UNSPECIFIED'), ('UNSPECIFIED'), ('UNSPECIFIED') ) ;
#89 = CC_DESIGN_SECURITY_CLASSIFICATION ( #92, ( #163 ) ) ;
#90 = ORIENTED_EDGE ( 'NONE', *, *, #73, .F. ) ;
#91 = LOCAL_TIME ( 15, 34, 47.00000000000000000, #50 ) ;
#92 = SECURITY_CLASSIFICATION ( '', '', #197 ) ;
#93 = CIRCLE ( 'NONE', #33, 1.249999999999993783 ) ;
#94 = CARTESIAN_POINT ( 'NONE',  ( 4.888073874380386697E-14, 9.373498641636537521E-33, 14.00000000000000000 ) ) ;
#95 = VERTEX_POINT ( 'NONE', #185 ) ;
#96 =( LENGTH_UNIT ( ) NAMED_UNIT ( * ) SI_UNIT ( .MILLI., .METRE. ) );
#97 = CARTESIAN_POINT ( 'NONE',  ( 0.0000000000000000000, 0.0000000000000000000, 0.0000000000000000000 ) ) ;
#98 = COORDINATED_UNIVERSAL_TIME_OFFSET ( 1, 0, .AHEAD. ) ;
#99 = PERSON_AND_ORGANIZATION ( #88, #179 ) ;
#100 = PERSON_AND_ORGANIZATION_ROLE ( 'design_owner' ) ;
#101 = DATE_AND_TIME ( #83, #198 ) ;
#102 = CYLINDRICAL_SURFACE ( 'NONE', #54, 1.249999999999992895 ) ;
#103 = FACE_OUTER_BOUND ( 'NONE', #182, .T. ) ;
#104 = CC_DESIGN_APPROVAL ( #161, ( #163 ) ) ;
#105 = FACE_OUTER_BOUND ( 'NONE', #55, .T. ) ;
#106 = ADVANCED_FACE ( 'NONE', ( #103 ), #81, .F. ) ;
#107 = DIRECTION ( 'NONE',  ( -3.491481338843133355E-15, 1.224646799147353207E-16, -1.000000000000000000 ) ) ;
#108 = LOCAL_TIME ( 15, 34, 47.00000000000000000, #4 ) ;
#109 = DIRECTION ( 'NONE',  ( -4.622231866529395825E-31, -1.000000000000000000, -1.301042606982613702E-16 ) ) ;
#110 = PERSON_AND_ORGANIZATION ( #88, #179 ) ;
#111 = APPROVAL_STATUS ( 'not_yet_approved' ) ;
#112 = APPROVAL_DATE_TIME ( #87, #62 ) ;
#113 = EDGE_LOOP ( 'NONE', ( #37 ) ) ;
#114 = EDGE_LOOP ( 'NONE', ( #53 ) ) ;
#115 = MANIFOLD_SOLID_BREP ( 'Corps-Déplacer/Copier1[1]', #42 ) ;
#116 = EDGE_LOOP ( 'NONE', ( #90 ) ) ;
#117 = EDGE_LOOP ( 'NONE', ( #75 ) ) ;
#118 = FACE_OUTER_BOUND ( 'NONE', #113, .T. ) ;
#119 =( GEOMETRIC_REPRESENTATION_CONTEXT ( 3 ) GLOBAL_UNCERTAINTY_ASSIGNED_CONTEXT ( ( #13 ) ) GLOBAL_UNIT_ASSIGNED_CONTEXT ( ( #96, #137, #172 ) ) REPRESENTATION_CONTEXT ( 'NONE', 'WORKASPACE' ) );
#120 = CYLINDRICAL_SURFACE ( 'NONE', #82, 1.249999999999995559 ) ;
#121 = DIRECTION ( 'NONE',  ( -4.275831445896958607E-31, -1.000000000000000000, -1.224646799147353207E-16 ) ) ;
#122 = AXIS2_PLACEMENT_3D ( 'NONE', #23, #25, #132 ) ;
#123 = APPROVAL ( #125, 'UNSPECIFIED' ) ;
#124 = CARTESIAN_POINT ( 'NONE',  ( 1.588494101043522318E-15, 1.249999999999992006, 0.4549627928327560911 ) ) ;
#125 = APPROVAL_STATUS ( 'not_yet_approved' ) ;
#126 = CIRCLE ( 'NONE', #153, 1.249999999999992006 ) ;
#127 = PERSON_AND_ORGANIZATION_ROLE ( 'classification_officer' ) ;
#128 = APPROVAL_DATE_TIME ( #101, #161 ) ;
#129 = DATE_AND_TIME ( #48, #16 ) ;
#130 = CONICAL_SURFACE ( 'NONE', #180, 1.249999999999992006, 1.221730476396026610 ) ;
#131 = PRODUCT_DEFINITION ( 'UNKNOWN', '', #163, #170 ) ;
#132 = DIRECTION ( 'NONE',  ( 0.0000000000000000000, 1.000000000000000000, 0.0000000000000000000 ) ) ;
#133 = CC_DESIGN_PERSON_AND_ORGANIZATION_ASSIGNMENT ( #110, #21, ( #163 ) ) ;
#134 = EDGE_LOOP ( 'NONE', ( #51 ) ) ;
#135 = DIRECTION ( 'NONE',  ( -3.491481338843133355E-15, 1.224646799147353207E-16, -1.000000000000000000 ) ) ;
#136 = DIRECTION ( 'NONE',  ( -3.491481338843133355E-15, 1.224646799147353207E-16, -1.000000000000000000 ) ) ;
#137 =( NAMED_UNIT ( * ) PLANE_ANGLE_UNIT ( ) SI_UNIT ( $, .RADIAN. ) );
#138 = DIRECTION ( 'NONE',  ( -3.491481338843133355E-15, 1.224646799147353207E-16, -1.000000000000000000 ) ) ;
#139 = PRODUCT_RELATED_PRODUCT_CATEGORY ( 'detail', '', ( #72 ) ) ;
#140 = FACE_OUTER_BOUND ( 'NONE', #117, .T. ) ;
#141 = DIRECTION ( 'NONE',  ( 1.000000000000000000, 0.0000000000000000000, 0.0000000000000000000 ) ) ;
#142 = CARTESIAN_POINT ( 'NONE',  ( 0.0000000000000000000, 0.0000000000000000000, 0.0000000000000000000 ) ) ;
#143 = CALENDAR_DATE ( 2021, 15, 10 ) ;
#144 = APPROVAL_STATUS ( 'not_yet_approved' ) ;
#145 = CC_DESIGN_APPROVAL ( #62, ( #131 ) ) ;
#146 = AXIS2_PLACEMENT_3D ( 'NONE', #152, #135, #46 ) ;
#147 = ORIENTED_EDGE ( 'NONE', *, *, #39, .T. ) ;
#148 = CONICAL_SURFACE ( 'NONE', #146, 0.8999999999999974687, 0.7853981633974435050 ) ;
#149 = DIRECTION ( 'NONE',  ( 3.491481338843133355E-15, -1.224646799147353207E-16, 1.000000000000000000 ) ) ;
#150 = ADVANCED_FACE ( 'NONE', ( #14, #28 ), #148, .T. ) ;
#151 = CARTESIAN_POINT ( 'NONE',  ( 4.888073874380386697E-14, 1.249999999999992006, 14.00000000000000000 ) ) ;
#152 = CARTESIAN_POINT ( 'NONE',  ( 1.501336975702547217E-13, -5.265981236333618470E-15, 43.00000000000000000 ) ) ;
#153 = AXIS2_PLACEMENT_3D ( 'NONE', #60, #43, #174 ) ;
#154 = CARTESIAN_POINT ( 'NONE',  ( 1.501336975702547217E-13, 6.748919021978260706E-33, 43.00000000000000000 ) ) ;
#155 = VERTEX_POINT ( 'NONE', #124 ) ;
#156 = APPLICATION_PROTOCOL_DEFINITION ( 'international standard', 'config_control_design', 1994, #74 ) ;
#157 = CLOSED_SHELL ( 'NONE', ( #171, #20, #52 ) ) ;
#158 = CALENDAR_DATE ( 2021, 15, 10 ) ;
#159 = PERSON_AND_ORGANIZATION_ROLE ( 'creator' ) ;
#160 = MECHANICAL_CONTEXT ( 'NONE', #74, 'mechanical' ) ;
#161 = APPROVAL ( #144, 'UNSPECIFIED' ) ;
#162 = DIRECTION ( 'NONE',  ( 4.275831445896957731E-31, 1.000000000000000000, 1.224646799147353207E-16 ) ) ;
#163 = PRODUCT_DEFINITION_FORMATION_WITH_SPECIFIED_SOURCE ( 'ANY', '', #72, .NOT_KNOWN. ) ;
#164 = FACE_OUTER_BOUND ( 'NONE', #114, .T. ) ;
#165 = APPLICATION_CONTEXT ( 'configuration controlled 3d designs of mechanical parts and assemblies' ) ;
#166 = CARTESIAN_POINT ( 'NONE',  ( 4.888073874380386697E-14, -1.714505518806294638E-15, 14.00000000000000000 ) ) ;
#167 = PLANE ( 'NONE',  #59 ) ;
#168 = DIRECTION ( 'NONE',  ( 4.275831445896957731E-31, 1.000000000000000000, 1.224646799147352961E-16 ) ) ;
#169 = CARTESIAN_POINT ( 'NONE',  ( 1.588494101043521726E-15, -5.571687279737749175E-17, 0.4549627928327559245 ) ) ;
#170 = DESIGN_CONTEXT ( 'detailed design', #165, 'design' ) ;
#171 = ADVANCED_FACE ( 'NONE', ( #12 ), #130, .T. ) ;
#172 =( NAMED_UNIT ( * ) SI_UNIT ( $, .STERADIAN. ) SOLID_ANGLE_UNIT ( ) );
#173 = AXIS2_PLACEMENT_3D ( 'NONE', #166, #80, #1 ) ;
#174 = DIRECTION ( 'NONE',  ( 4.622231866529395825E-31, 1.000000000000000000, 1.301042606982613702E-16 ) ) ;
#175 = CALENDAR_DATE ( 2021, 15, 10 ) ;
#176 = PERSON_AND_ORGANIZATION_ROLE ( 'creator' ) ;
#177 = DATE_TIME_ROLE ( 'creation_date' ) ;
#178 = CC_DESIGN_DATE_AND_TIME_ASSIGNMENT ( #129, #84, ( #92 ) ) ;
#179 = ORGANIZATION ( 'UNSPECIFIED', 'UNSPECIFIED', '' ) ;
#180 = AXIS2_PLACEMENT_3D ( 'NONE', #169, #149, #109 ) ;
#181 = AXIS2_PLACEMENT_3D ( 'NONE', #57, #184, #121 ) ;
#182 = EDGE_LOOP ( 'NONE', ( #26 ) ) ;
#183 = EDGE_LOOP ( 'NONE', ( #40 ) ) ;
#184 = DIRECTION ( 'NONE',  ( 3.491481338843133355E-15, -1.224646799147353207E-16, 1.000000000000000000 ) ) ;
#185 = CARTESIAN_POINT ( 'NONE',  ( 1.489116791016596092E-13, 1.249999999999992006, 42.64999999999999147 ) ) ;
#186 = ADVANCED_FACE ( 'NONE', ( #140 ), #167, .F. ) ;
#187 = VERTEX_POINT ( 'NONE', #61 ) ;
#188 = MANIFOLD_SOLID_BREP ( 'Corps-Déplacer/Copier1[2]', #157 ) ;
#189 = AXIS2_PLACEMENT_3D ( 'NONE', #154, #79, #202 ) ;
#190 = DIRECTION ( 'NONE',  ( 0.0000000000000000000, 1.000000000000000000, 0.0000000000000000000 ) ) ;
#191 = ADVANCED_BREP_SHAPE_REPRESENTATION ( '41454', ( #115, #188, #38 ), #119 ) ;
#192 = AXIS2_PLACEMENT_3D ( 'NONE', #27, #107, #193 ) ;
#193 = DIRECTION ( 'NONE',  ( 0.0000000000000000000, 1.000000000000000000, 0.0000000000000000000 ) ) ;
#194 = APPROVAL_ROLE ( '' ) ;
#195 = PERSON_AND_ORGANIZATION ( #88, #179 ) ;
#196 = EDGE_CURVE ( 'NONE', #155, #155, #126, .T. ) ;
#197 = SECURITY_CLASSIFICATION_LEVEL ( 'unclassified' ) ;
#198 = LOCAL_TIME ( 15, 34, 47.00000000000000000, #19 ) ;
#199 = EDGE_CURVE ( 'NONE', #44, #44, #2, .T. ) ;
#200 = CARTESIAN_POINT ( 'NONE',  ( 0.0000000000000000000, 0.0000000000000000000, 0.0000000000000000000 ) ) ;
#201 = DIRECTION ( 'NONE',  ( 3.491481338843133355E-15, -1.224646799147353207E-16, 1.000000000000000000 ) ) ;
#202 = DIRECTION ( 'NONE',  ( 4.275831445896958607E-31, 1.000000000000000000, 1.224646799147353207E-16 ) ) ;
#203 = ADVANCED_FACE ( 'NONE', ( #3, #105 ), #120, .T. ) ;
ENDSEC;
END-ISO-10303-21;
