ISO-10303-21;
HEADER;
FILE_DESCRIPTION (( 'STEP AP203' ),
    '1' );
FILE_NAME ('41452.step',
    '2021-09-02T13:22:45',
    ( '' ),
    ( '' ),
    'SwSTEP 2.0',
    'SolidWorks 2019',
    '' );
FILE_SCHEMA (( 'CONFIG_CONTROL_DESIGN' ));
ENDSEC;

DATA;
#1 = APPROVAL_PERSON_ORGANIZATION ( #337, #24, #307 ) ;
#2 = CC_DESIGN_PERSON_AND_ORGANIZATION_ASSIGNMENT ( #245, #135, ( #14 ) ) ;
#3 = DIRECTION ( 'NONE',  ( 4.275831445896958607E-31, 1.000000000000000000, 1.224646799147353207E-16 ) ) ;
#4 = CARTESIAN_POINT ( 'NONE',  ( 1.640996229256272803E-13, -5.755839955992560641E-15, 47.00000000000000000 ) ) ;
#5 = PLANE ( 'NONE',  #28 ) ;
#6 = DIRECTION ( 'NONE',  ( -2.468850131082233000E-15, 0.7071067811865568986, -0.7071067811865382469 ) ) ;
#7 = CARTESIAN_POINT ( 'NONE',  ( 0.0000000000000000000, 0.0000000000000000000, 0.0000000000000000000 ) ) ;
#8 = DIRECTION ( 'NONE',  ( -3.491481338843133355E-15, 1.224646799147353207E-16, -1.000000000000000000 ) ) ;
#9 = EDGE_CURVE ( 'NONE', #124, #241, #89, .T. ) ;
#10 = CLOSED_SHELL ( 'NONE', ( #93, #188, #219, #119, #72 ) ) ;
#11 = CONICAL_SURFACE ( 'NONE', #82, 1.650000000000001021, 0.7853981633974613796 ) ;
#12 = CARTESIAN_POINT ( 'NONE',  ( 2.210994937436448836E-13, -2.150000000000002576, 47.00000000000000000 ) ) ;
#13 = DIRECTION ( 'NONE',  ( -4.275831445896958607E-31, -1.000000000000000000, -1.224646799147353207E-16 ) ) ;
#14 = PRODUCT_DEFINITION_FORMATION_WITH_SPECIFIED_SOURCE ( 'ANY', '', #175, .NOT_KNOWN. ) ;
#15 = ORIENTED_EDGE ( 'NONE', *, *, #30, .T. ) ;
#16 = APPROVAL_STATUS ( 'not_yet_approved' ) ;
#17 = CC_DESIGN_DATE_AND_TIME_ASSIGNMENT ( #225, #29, ( #205 ) ) ;
#18 = APPROVAL_PERSON_ORGANIZATION ( #288, #178, #255 ) ;
#19 = VERTEX_POINT ( 'NONE', #12 ) ;
#20 = COORDINATED_UNIVERSAL_TIME_OFFSET ( 1, 0, .AHEAD. ) ;
#21 = PERSON_AND_ORGANIZATION ( #180, #197 ) ;
#22 = DIRECTION ( 'NONE',  ( -3.491481338843133355E-15, 1.224646799147353207E-16, -1.000000000000000000 ) ) ;
#23 = DIRECTION ( 'NONE',  ( -3.491481338843133355E-15, 1.224646799147353207E-16, -1.000000000000000000 ) ) ;
#24 = APPROVAL ( #103, 'UNSPECIFIED' ) ;
#25 = CARTESIAN_POINT ( 'NONE',  ( 4.510471322948018823E-15, -2.149999999999991473, 1.291850330909263267 ) ) ;
#26 = DATE_AND_TIME ( #45, #42 ) ;
#27 = ORIENTED_EDGE ( 'NONE', *, *, #314, .F. ) ;
#28 = AXIS2_PLACEMENT_3D ( 'NONE', #109, #113, #208 ) ;
#29 = DATE_TIME_ROLE ( 'creation_date' ) ;
#30 = EDGE_CURVE ( 'NONE', #57, #51, #310, .T. ) ;
#31 = DIRECTION ( 'NONE',  ( -3.491481338843133355E-15, 1.224646799147353207E-16, -1.000000000000000000 ) ) ;
#32 = AXIS2_PLACEMENT_3D ( 'NONE', #271, #301, #326 ) ;
#33 = DIRECTION ( 'NONE',  ( 0.0000000000000000000, 1.000000000000000000, 0.0000000000000000000 ) ) ;
#34 = CYLINDRICAL_SURFACE ( 'NONE', #106, 2.149999999999999023 ) ;
#35 = PERSON_AND_ORGANIZATION ( #180, #197 ) ;
#36 = EDGE_CURVE ( 'NONE', #214, #293, #230, .T. ) ;
#37 = CARTESIAN_POINT ( 'NONE',  ( 2.793185071074506684E-13, 1.649999999999991251, 80.00000000000000000 ) ) ;
#38 = VERTEX_POINT ( 'NONE', #37 ) ;
#39 = AXIS2_PLACEMENT_3D ( 'NONE', #229, #157, #254 ) ;
#40 = ORIENTED_EDGE ( 'NONE', *, *, #309, .T. ) ;
#41 = EDGE_CURVE ( 'NONE', #241, #124, #125, .T. ) ;
#42 = LOCAL_TIME ( 15, 22, 45.00000000000000000, #150 ) ;
#43 = PERSON_AND_ORGANIZATION ( #180, #197 ) ;
#44 = ORIENTED_EDGE ( 'NONE', *, *, #260, .F. ) ;
#45 = CALENDAR_DATE ( 2021, 2, 9 ) ;
#46 = APPLICATION_PROTOCOL_DEFINITION ( 'international standard', 'config_control_design', 1994, #251 ) ;
#47 = CALENDAR_DATE ( 2021, 2, 9 ) ;
#48 = DIRECTION ( 'NONE',  ( 1.798245827342160317E-15, -0.8571673007021098911, 0.5150380749100582634 ) ) ;
#49 = DIRECTION ( 'NONE',  ( -3.491481338843133355E-15, 1.224646799147353207E-16, -1.000000000000000000 ) ) ;
#50 = CARTESIAN_POINT ( 'NONE',  ( 2.632990618166799374E-16, -2.149999999999999023, -2.632990618166817617E-16 ) ) ;
#51 = VERTEX_POINT ( 'NONE', #184 ) ;
#52 = CARTESIAN_POINT ( 'NONE',  ( 2.793185071074506684E-13, -9.797174393178826052E-15, 80.00000000000000000 ) ) ;
#53 = ADVANCED_FACE ( 'NONE', ( #316 ), #290, .F. ) ;
#54 = CALENDAR_DATE ( 2021, 2, 9 ) ;
#55 = CIRCLE ( 'NONE', #221, 2.150000000000000799 ) ;
#56 = CARTESIAN_POINT ( 'NONE',  ( 4.773770384764701127E-15, 2.149999999999991473, 1.291850330909263711 ) ) ;
#57 = VERTEX_POINT ( 'NONE', #279 ) ;
#58 = DIRECTION ( 'NONE',  ( -3.583125477929755369E-31, -1.000000000000000000, -1.008560160451636042E-16 ) ) ;
#59 = COORDINATED_UNIVERSAL_TIME_OFFSET ( 1, 0, .AHEAD. ) ;
#60 = FACE_OUTER_BOUND ( 'NONE', #162, .T. ) ;
#61 =( NAMED_UNIT ( * ) PLANE_ANGLE_UNIT ( ) SI_UNIT ( $, .RADIAN. ) );
#62 = CARTESIAN_POINT ( 'NONE',  ( 2.210994937436448079E-13, -2.150000000000010569, 79.50000000000001421 ) ) ;
#63 = FACE_OUTER_BOUND ( 'NONE', #132, .T. ) ;
#64 = CARTESIAN_POINT ( 'NONE',  ( 0.0000000000000000000, 0.0000000000000000000, 0.0000000000000000000 ) ) ;
#65 = CARTESIAN_POINT ( 'NONE',  ( 2.793185071074506684E-13, 1.649999999999991251, 80.00000000000000000 ) ) ;
#66 = DIRECTION ( 'NONE',  ( 0.0000000000000000000, 1.000000000000000000, 0.0000000000000000000 ) ) ;
#67 = EDGE_CURVE ( 'NONE', #238, #149, #319, .T. ) ;
#68 = ORIENTED_EDGE ( 'NONE', *, *, #303, .T. ) ;
#69 = DIRECTION ( 'NONE',  ( -3.491481338843133355E-15, 1.224646799147353207E-16, -1.000000000000000000 ) ) ;
#70 = VECTOR ( 'NONE', #179, 1000.000000000000000 ) ;
#71 = AXIS2_PLACEMENT_3D ( 'NONE', #4, #79, #274 ) ;
#72 = ADVANCED_FACE ( 'NONE', ( #141 ), #5, .T. ) ;
#73 = ORIENTED_EDGE ( 'NONE', *, *, #275, .F. ) ;
#74 = ORIENTED_EDGE ( 'NONE', *, *, #303, .F. ) ;
#75 = FACE_OUTER_BOUND ( 'NONE', #266, .T. ) ;
#76 = AXIS2_PLACEMENT_3D ( 'NONE', #52, #87, #209 ) ;
#77 = DIRECTION ( 'NONE',  ( 0.0000000000000000000, 1.000000000000000000, 0.0000000000000000000 ) ) ;
#78 = EDGE_LOOP ( 'NONE', ( #189, #137, #284, #27 ) ) ;
#79 = DIRECTION ( 'NONE',  ( -3.491481338843133355E-15, 1.224646799147353207E-16, -1.000000000000000000 ) ) ;
#80 = COORDINATED_UNIVERSAL_TIME_OFFSET ( 1, 0, .AHEAD. ) ;
#81 = DATE_AND_TIME ( #47, #281 ) ;
#82 = AXIS2_PLACEMENT_3D ( 'NONE', #328, #299, #269 ) ;
#83 = COORDINATED_UNIVERSAL_TIME_OFFSET ( 1, 0, .AHEAD. ) ;
#84 = DIRECTION ( 'NONE',  ( 3.583125477929755369E-31, 1.000000000000000000, 1.008560160451636042E-16 ) ) ;
#85 = DIRECTION ( 'NONE',  ( -3.491481338843133355E-15, 1.224646799147353207E-16, -1.000000000000000000 ) ) ;
#86 = CIRCLE ( 'NONE', #76, 1.650000000000001021 ) ;
#87 = DIRECTION ( 'NONE',  ( -3.491481338843133355E-15, 1.224646799147353207E-16, -1.000000000000000000 ) ) ;
#88 = DIRECTION ( 'NONE',  ( -2.382254525458682760E-15, -0.7071067811865566766, -0.7071067811865383579 ) ) ;
#89 = CIRCLE ( 'NONE', #133, 2.149999999999991473 ) ;
#90 = ADVANCED_FACE ( 'NONE', ( #63 ), #249, .T. ) ;
#91 = DIRECTION ( 'NONE',  ( -3.491481338843133355E-15, 1.224646799147353207E-16, -1.000000000000000000 ) ) ;
#92 = CALENDAR_DATE ( 2021, 2, 9 ) ;
#93 = ADVANCED_FACE ( 'NONE', ( #60 ), #160, .T. ) ;
#94 = EDGE_LOOP ( 'NONE', ( #267, #74 ) ) ;
#95 = APPROVAL ( #16, 'UNSPECIFIED' ) ;
#96 = CARTESIAN_POINT ( 'NONE',  ( 2.632990618166792965E-16, -2.149999999999994138, -2.632990618166811207E-16 ) ) ;
#97 = DIRECTION ( 'NONE',  ( -3.491481338843133355E-15, 1.224646799147353207E-16, -1.000000000000000000 ) ) ;
#98 = EDGE_LOOP ( 'NONE', ( #321, #223, #131 ) ) ;
#99 = DIRECTION ( 'NONE',  ( -3.583125477929755369E-31, -1.000000000000000000, -1.008560160451636042E-16 ) ) ;
#100 = APPROVAL_PERSON_ORGANIZATION ( #43, #95, #198 ) ;
#101 = APPLICATION_PROTOCOL_DEFINITION ( 'international standard', 'config_control_design', 1994, #118 ) ;
#102 = ADVANCED_FACE ( 'NONE', ( #212 ), #34, .T. ) ;
#103 = APPROVAL_STATUS ( 'not_yet_approved' ) ;
#104 = VECTOR ( 'NONE', #6, 999.9999999999998863 ) ;
#105 = CARTESIAN_POINT ( 'NONE',  ( 4.510471322948019612E-15, -1.582060372725478679E-16, 1.291850330909263489 ) ) ;
#106 = AXIS2_PLACEMENT_3D ( 'NONE', #7, #91, #182 ) ;
#107 = CARTESIAN_POINT ( 'NONE',  ( 2.775727664380291585E-13, 2.149999999999991473, 79.50000000000001421 ) ) ;
#108 = EDGE_CURVE ( 'NONE', #293, #19, #261, .T. ) ;
#109 = CARTESIAN_POINT ( 'NONE',  ( 1.640996229256272803E-13, 1.612241766361485981E-32, 47.00000000000000000 ) ) ;
#110 = DIRECTION ( 'NONE',  ( 3.583125477929755369E-31, 1.000000000000000000, 1.008560160451636042E-16 ) ) ;
#111 = LOCAL_TIME ( 15, 22, 45.00000000000000000, #20 ) ;
#112 = CARTESIAN_POINT ( 'NONE',  ( 1.640996229256272803E-13, -5.755839955992560641E-15, 47.00000000000000000 ) ) ;
#113 = DIRECTION ( 'NONE',  ( 3.491481338843133355E-15, -1.224646799147353207E-16, 1.000000000000000000 ) ) ;
#114 = AXIS2_PLACEMENT_3D ( 'NONE', #313, #85, #176 ) ;
#115 = AXIS2_PLACEMENT_3D ( 'NONE', #199, #97, #66 ) ;
#116 = DIRECTION ( 'NONE',  ( -3.491481338843133355E-15, 1.224646799147353207E-16, -1.000000000000000000 ) ) ;
#117 = ORIENTED_EDGE ( 'NONE', *, *, #275, .T. ) ;
#118 = APPLICATION_CONTEXT ( 'configuration controlled 3d designs of mechanical parts and assemblies' ) ;
#119 = ADVANCED_FACE ( 'NONE', ( #75 ), #335, .T. ) ;
#120 = ORIENTED_EDGE ( 'NONE', *, *, #41, .T. ) ;
#121 = ORIENTED_EDGE ( 'NONE', *, *, #41, .F. ) ;
#122 = CARTESIAN_POINT ( 'NONE',  ( 1.640996229256272803E-13, 2.149999999999991473, 47.00000000000000000 ) ) ;
#123 = PERSON_AND_ORGANIZATION ( #180, #197 ) ;
#124 = VERTEX_POINT ( 'NONE', #25 ) ;
#125 = CIRCLE ( 'NONE', #168, 2.149999999999991473 ) ;
#126 = AXIS2_PLACEMENT_3D ( 'NONE', #130, #333, #99 ) ;
#127 = FACE_OUTER_BOUND ( 'NONE', #142, .T. ) ;
#128 = CARTESIAN_POINT ( 'NONE',  ( 9.193037608678434117E-31, 2.149999999999994138, 2.632990618166801840E-16 ) ) ;
#129 = EDGE_CURVE ( 'NONE', #238, #293, #250, .T. ) ;
#130 = CARTESIAN_POINT ( 'NONE',  ( 4.510471322948019612E-15, -1.582060372725478679E-16, 1.291850330909263489 ) ) ;
#131 = ORIENTED_EDGE ( 'NONE', *, *, #9, .T. ) ;
#132 = EDGE_LOOP ( 'NONE', ( #117, #174, #139, #155 ) ) ;
#133 = AXIS2_PLACEMENT_3D ( 'NONE', #232, #31, #110 ) ;
#134 = CALENDAR_DATE ( 2021, 2, 9 ) ;
#135 = PERSON_AND_ORGANIZATION_ROLE ( 'creator' ) ;
#136 = CC_DESIGN_APPROVAL ( #24, ( #14 ) ) ;
#137 = ORIENTED_EDGE ( 'NONE', *, *, #213, .T. ) ;
#138 =( LENGTH_UNIT ( ) NAMED_UNIT ( * ) SI_UNIT ( .MILLI., .METRE. ) );
#139 = ORIENTED_EDGE ( 'NONE', *, *, #129, .F. ) ;
#140 = PRODUCT_DEFINITION_SHAPE ( 'NONE', 'NONE',  #205 ) ;
#141 = FACE_OUTER_BOUND ( 'NONE', #94, .T. ) ;
#142 = EDGE_LOOP ( 'NONE', ( #273, #187 ) ) ;
#143 = CIRCLE ( 'NONE', #311, 1.650000000000001021 ) ;
#144 = ADVANCED_FACE ( 'NONE', ( #127 ), #264, .F. ) ;
#145 = MANIFOLD_SOLID_BREP ( 'Corps-Déplacer/Copier1[1]', #153 ) ;
#146 = CC_DESIGN_APPROVAL ( #95, ( #205 ) ) ;
#147 = VECTOR ( 'NONE', #283, 999.9999999999998863 ) ;
#148 = DIRECTION ( 'NONE',  ( 0.0000000000000000000, 1.000000000000000000, 0.0000000000000000000 ) ) ;
#149 = VERTEX_POINT ( 'NONE', #122 ) ;
#150 = COORDINATED_UNIVERSAL_TIME_OFFSET ( 1, 0, .AHEAD. ) ;
#151 = LOCAL_TIME ( 15, 22, 45.00000000000000000, #80 ) ;
#152 = DATE_AND_TIME ( #54, #151 ) ;
#153 = CLOSED_SHELL ( 'NONE', ( #90, #252, #144, #102, #161, #53 ) ) ;
#154 = VECTOR ( 'NONE', #244, 1000.000000000000000 ) ;
#155 = ORIENTED_EDGE ( 'NONE', *, *, #309, .F. ) ;
#156 = EDGE_CURVE ( 'NONE', #57, #241, #170, .T. ) ;
#157 = DIRECTION ( 'NONE',  ( -3.491481338843133355E-15, 1.224646799147353207E-16, -1.000000000000000000 ) ) ;
#158 = EDGE_LOOP ( 'NONE', ( #73, #216 ) ) ;
#159 = FACE_OUTER_BOUND ( 'NONE', #98, .T. ) ;
#160 = CYLINDRICAL_SURFACE ( 'NONE', #203, 2.149999999999994138 ) ;
#161 = ADVANCED_FACE ( 'NONE', ( #327 ), #11, .T. ) ;
#162 = EDGE_LOOP ( 'NONE', ( #15, #206, #121, #325 ) ) ;
#163 = PERSON_AND_ORGANIZATION_ROLE ( 'classification_officer' ) ;
#164 = EDGE_CURVE ( 'NONE', #215, #124, #171, .T. ) ;
#165 = CARTESIAN_POINT ( 'NONE',  ( 1.640996229256272803E-13, -5.755839955992560641E-15, 47.00000000000000000 ) ) ;
#166 =( GEOMETRIC_REPRESENTATION_CONTEXT ( 3 ) GLOBAL_UNCERTAINTY_ASSIGNED_CONTEXT ( ( #237 ) ) GLOBAL_UNIT_ASSIGNED_CONTEXT ( ( #138, #61, #317 ) ) REPRESENTATION_CONTEXT ( 'NONE', 'WORKASPACE' ) );
#167 = ORIENTED_EDGE ( 'NONE', *, *, #164, .F. ) ;
#168 = AXIS2_PLACEMENT_3D ( 'NONE', #210, #312, #84 ) ;
#169 = ORIENTED_EDGE ( 'NONE', *, *, #67, .F. ) ;
#170 = LINE ( 'NONE', #128, #154 ) ;
#171 = LINE ( 'NONE', #194, #191 ) ;
#172 = CARTESIAN_POINT ( 'NONE',  ( 2.786783196645779380E-13, -1.650000000000010791, 80.00000000000000000 ) ) ;
#173 = CYLINDRICAL_SURFACE ( 'NONE', #39, 2.149999999999999023 ) ;
#174 = ORIENTED_EDGE ( 'NONE', *, *, #36, .T. ) ;
#175 = PRODUCT ( '41452', '41452', '', ( #304 ) ) ;
#176 = DIRECTION ( 'NONE',  ( 0.0000000000000000000, 1.000000000000000000, 0.0000000000000000000 ) ) ;
#177 = CARTESIAN_POINT ( 'NONE',  ( 4.773770384764701127E-15, 2.149999999999991473, 1.291850330909263711 ) ) ;
#178 = APPROVAL ( #263, 'UNSPECIFIED' ) ;
#179 = DIRECTION ( 'NONE',  ( -3.491481338843133355E-15, 1.224646799147353207E-16, -1.000000000000000000 ) ) ;
#180 = PERSON ( 'UNSPECIFIED', 'UNSPECIFIED', 'UNSPECIFIED', ('UNSPECIFIED'), ('UNSPECIFIED'), ('UNSPECIFIED') ) ;
#181 = EDGE_CURVE ( 'NONE', #214, #38, #143, .T. ) ;
#182 = DIRECTION ( 'NONE',  ( 4.275831445896958607E-31, 1.000000000000000000, 1.224646799147353207E-16 ) ) ;
#183 = DATE_TIME_ROLE ( 'classification_date' ) ;
#184 = CARTESIAN_POINT ( 'NONE',  ( 8.456834618610409601E-14, -2.150000000000002576, 47.00000000000000000 ) ) ;
#185 = CC_DESIGN_APPROVAL ( #178, ( #265 ) ) ;
#186 = LINE ( 'NONE', #96, #243 ) ;
#187 = ORIENTED_EDGE ( 'NONE', *, *, #314, .T. ) ;
#188 = ADVANCED_FACE ( 'NONE', ( #222 ), #330, .T. ) ;
#189 = ORIENTED_EDGE ( 'NONE', *, *, #108, .F. ) ;
#190 = AXIS2_PLACEMENT_3D ( 'NONE', #165, #8, #33 ) ;
#191 = VECTOR ( 'NONE', #48, 1000.000000000000000 ) ;
#192 = CARTESIAN_POINT ( 'NONE',  ( 1.640996229256272803E-13, 1.612241766361485981E-32, 47.00000000000000000 ) ) ;
#193 = ORIENTED_EDGE ( 'NONE', *, *, #289, .T. ) ;
#194 = CARTESIAN_POINT ( 'NONE',  ( 4.510471322948018823E-15, -2.149999999999991473, 1.291850330909263267 ) ) ;
#195 = CARTESIAN_POINT ( 'NONE',  ( 2.775727664380291585E-13, -9.735942053221460055E-15, 79.50000000000001421 ) ) ;
#196 = APPROVAL_DATE_TIME ( #152, #24 ) ;
#197 = ORGANIZATION ( 'UNSPECIFIED', 'UNSPECIFIED', '' ) ;
#198 = APPROVAL_ROLE ( '' ) ;
#199 = CARTESIAN_POINT ( 'NONE',  ( 2.775727664380291585E-13, -9.735942053221460055E-15, 79.50000000000001421 ) ) ;
#200 = ORIENTED_EDGE ( 'NONE', *, *, #36, .F. ) ;
#201 = CC_DESIGN_SECURITY_CLASSIFICATION ( #265, ( #14 ) ) ;
#202 = EDGE_LOOP ( 'NONE', ( #227, #331, #44, #169 ) ) ;
#203 = AXIS2_PLACEMENT_3D ( 'NONE', #64, #259, #235 ) ;
#204 = CONICAL_SURFACE ( 'NONE', #234, 2.149999999999991473, 1.029744258676649649 ) ;
#205 = PRODUCT_DEFINITION ( 'UNKNOWN', '', #14, #295 ) ;
#206 = ORIENTED_EDGE ( 'NONE', *, *, #300, .T. ) ;
#207 = PERSON_AND_ORGANIZATION ( #180, #197 ) ;
#208 = DIRECTION ( 'NONE',  ( -4.275831445896958607E-31, -1.000000000000000000, -1.224646799147353207E-16 ) ) ;
#209 = DIRECTION ( 'NONE',  ( 0.0000000000000000000, 1.000000000000000000, 0.0000000000000000000 ) ) ;
#210 = CARTESIAN_POINT ( 'NONE',  ( 4.510471322948019612E-15, -1.582060372725478679E-16, 1.291850330909263489 ) ) ;
#211 = CIRCLE ( 'NONE', #71, 2.149999999999996803 ) ;
#212 = FACE_OUTER_BOUND ( 'NONE', #78, .T. ) ;
#213 = EDGE_CURVE ( 'NONE', #293, #238, #55, .T. ) ;
#214 = VERTEX_POINT ( 'NONE', #172 ) ;
#215 = VERTEX_POINT ( 'NONE', #272 ) ;
#216 = ORIENTED_EDGE ( 'NONE', *, *, #181, .F. ) ;
#217 = CC_DESIGN_DATE_AND_TIME_ASSIGNMENT ( #258, #183, ( #265 ) ) ;
#218 = DIRECTION ( 'NONE',  ( -3.491481338843133355E-15, 1.224646799147353207E-16, -1.000000000000000000 ) ) ;
#219 = ADVANCED_FACE ( 'NONE', ( #159 ), #204, .T. ) ;
#220 = DIRECTION ( 'NONE',  ( 4.275831445896957731E-31, 1.000000000000000000, 1.224646799147352961E-16 ) ) ;
#221 = AXIS2_PLACEMENT_3D ( 'NONE', #195, #305, #77 ) ;
#222 = FACE_OUTER_BOUND ( 'NONE', #276, .T. ) ;
#223 = ORIENTED_EDGE ( 'NONE', *, *, #164, .T. ) ;
#224 = PERSON_AND_ORGANIZATION_ROLE ( 'design_owner' ) ;
#225 = DATE_AND_TIME ( #134, #111 ) ;
#226 = AXIS2_PLACEMENT_3D ( 'NONE', #296, #22, #287 ) ;
#227 = ORIENTED_EDGE ( 'NONE', *, *, #129, .T. ) ;
#228 = CARTESIAN_POINT ( 'NONE',  ( 2.795205738293100029E-13, -1.650000000000010791, 80.00000000000000000 ) ) ;
#229 = CARTESIAN_POINT ( 'NONE',  ( 0.0000000000000000000, 0.0000000000000000000, 0.0000000000000000000 ) ) ;
#230 = LINE ( 'NONE', #228, #318 ) ;
#231 = PERSON_AND_ORGANIZATION_ROLE ( 'design_supplier' ) ;
#232 = CARTESIAN_POINT ( 'NONE',  ( 4.510471322948019612E-15, -1.582060372725478679E-16, 1.291850330909263489 ) ) ;
#233 = AXIS2_PLACEMENT_3D ( 'NONE', #282, #253, #3 ) ;
#234 = AXIS2_PLACEMENT_3D ( 'NONE', #105, #278, #58 ) ;
#235 = DIRECTION ( 'NONE',  ( 4.275831445896957731E-31, 1.000000000000000000, 1.224646799147352961E-16 ) ) ;
#236 = DIRECTION ( 'NONE',  ( 3.491481338843133355E-15, -1.224646799147353207E-16, 1.000000000000000000 ) ) ;
#237 = UNCERTAINTY_MEASURE_WITH_UNIT (LENGTH_MEASURE( 1.000000000000000082E-05 ), #138, 'distance_accuracy_value', 'NONE');
#238 = VERTEX_POINT ( 'NONE', #107 ) ;
#239 = SHAPE_DEFINITION_REPRESENTATION ( #140, #268 ) ;
#240 = CARTESIAN_POINT ( 'NONE',  ( 0.0000000000000000000, 0.0000000000000000000, 0.0000000000000000000 ) ) ;
#241 = VERTEX_POINT ( 'NONE', #56 ) ;
#242 = PERSON_AND_ORGANIZATION_ROLE ( 'creator' ) ;
#243 = VECTOR ( 'NONE', #116, 1000.000000000000000 ) ;
#244 = DIRECTION ( 'NONE',  ( -3.491481338843133355E-15, 1.224646799147353207E-16, -1.000000000000000000 ) ) ;
#245 = PERSON_AND_ORGANIZATION ( #180, #197 ) ;
#246 = VECTOR ( 'NONE', #49, 1000.000000000000000 ) ;
#247 = MANIFOLD_SOLID_BREP ( 'Corps-Déplacer/Copier1[2]', #10 ) ;
#248 = ORIENTED_EDGE ( 'NONE', *, *, #181, .T. ) ;
#249 = CONICAL_SURFACE ( 'NONE', #114, 1.650000000000001021, 0.7853981633974613796 ) ;
#250 = CIRCLE ( 'NONE', #115, 2.150000000000000799 ) ;
#251 = APPLICATION_CONTEXT ( 'configuration controlled 3d designs of mechanical parts and assemblies' ) ;
#252 = ADVANCED_FACE ( 'NONE', ( #257 ), #173, .T. ) ;
#253 = DIRECTION ( 'NONE',  ( -3.491481338843133355E-15, 1.224646799147353207E-16, -1.000000000000000000 ) ) ;
#254 = DIRECTION ( 'NONE',  ( 4.275831445896958607E-31, 1.000000000000000000, 1.224646799147353207E-16 ) ) ;
#255 = APPROVAL_ROLE ( '' ) ;
#256 = ORIENTED_EDGE ( 'NONE', *, *, #9, .F. ) ;
#257 = FACE_OUTER_BOUND ( 'NONE', #202, .T. ) ;
#258 = DATE_AND_TIME ( #92, #291 ) ;
#259 = DIRECTION ( 'NONE',  ( -3.491481338843133355E-15, 1.224646799147353207E-16, -1.000000000000000000 ) ) ;
#260 = EDGE_CURVE ( 'NONE', #149, #19, #211, .T. ) ;
#261 = LINE ( 'NONE', #50, #246 ) ;
#262 = APPROVAL_DATE_TIME ( #81, #178 ) ;
#263 = APPROVAL_STATUS ( 'not_yet_approved' ) ;
#264 = PLANE ( 'NONE',  #298 ) ;
#265 = SECURITY_CLASSIFICATION ( '', '', #320 ) ;
#266 = EDGE_LOOP ( 'NONE', ( #308, #68, #297, #256 ) ) ;
#267 = ORIENTED_EDGE ( 'NONE', *, *, #30, .F. ) ;
#268 = ADVANCED_BREP_SHAPE_REPRESENTATION ( '41452', ( #145, #247, #32 ), #166 ) ;
#269 = DIRECTION ( 'NONE',  ( 0.0000000000000000000, 1.000000000000000000, 0.0000000000000000000 ) ) ;
#270 = CC_DESIGN_PERSON_AND_ORGANIZATION_ASSIGNMENT ( #35, #163, ( #265 ) ) ;
#271 = CARTESIAN_POINT ( 'NONE',  ( 0.0000000000000000000, 0.0000000000000000000, 0.0000000000000000000 ) ) ;
#272 = CARTESIAN_POINT ( 'NONE',  ( 0.0000000000000000000, 0.0000000000000000000, 0.0000000000000000000 ) ) ;
#273 = ORIENTED_EDGE ( 'NONE', *, *, #260, .T. ) ;
#274 = DIRECTION ( 'NONE',  ( 0.0000000000000000000, 1.000000000000000000, 0.0000000000000000000 ) ) ;
#275 = EDGE_CURVE ( 'NONE', #38, #214, #86, .T. ) ;
#276 = EDGE_LOOP ( 'NONE', ( #167, #193, #120 ) ) ;
#277 = AXIS2_PLACEMENT_3D ( 'NONE', #240, #218, #220 ) ;
#278 = DIRECTION ( 'NONE',  ( 3.491481338843133355E-15, -1.224646799147353207E-16, 1.000000000000000000 ) ) ;
#279 = CARTESIAN_POINT ( 'NONE',  ( 1.640996229256272803E-13, 2.149999999999991473, 47.00000000000000000 ) ) ;
#280 = CIRCLE ( 'NONE', #226, 2.149999999999996803 ) ;
#281 = LOCAL_TIME ( 15, 22, 45.00000000000000000, #59 ) ;
#282 = CARTESIAN_POINT ( 'NONE',  ( 2.793185071074506684E-13, 1.237301820696018842E-32, 80.00000000000000000 ) ) ;
#283 = DIRECTION ( 'NONE',  ( 1.903218546456022717E-15, 0.8571673007021097801, 0.5150380749100585964 ) ) ;
#284 = ORIENTED_EDGE ( 'NONE', *, *, #67, .T. ) ;
#285 = LINE ( 'NONE', #65, #104 ) ;
#286 = CARTESIAN_POINT ( 'NONE',  ( 9.193037608678456888E-31, 2.149999999999999023, 2.632990618166808249E-16 ) ) ;
#287 = DIRECTION ( 'NONE',  ( 0.0000000000000000000, 1.000000000000000000, 0.0000000000000000000 ) ) ;
#288 = PERSON_AND_ORGANIZATION ( #180, #197 ) ;
#289 = EDGE_CURVE ( 'NONE', #215, #241, #315, .T. ) ;
#290 = PLANE ( 'NONE',  #233 ) ;
#291 = LOCAL_TIME ( 15, 22, 45.00000000000000000, #83 ) ;
#292 = DIRECTION ( 'NONE',  ( 0.0000000000000000000, 1.000000000000000000, 0.0000000000000000000 ) ) ;
#293 = VERTEX_POINT ( 'NONE', #62 ) ;
#294 = EDGE_LOOP ( 'NONE', ( #200, #248, #40, #324 ) ) ;
#295 = DESIGN_CONTEXT ( 'detailed design', #118, 'design' ) ;
#296 = CARTESIAN_POINT ( 'NONE',  ( 1.640996229256272803E-13, -5.755839955992560641E-15, 47.00000000000000000 ) ) ;
#297 = ORIENTED_EDGE ( 'NONE', *, *, #156, .T. ) ;
#298 = AXIS2_PLACEMENT_3D ( 'NONE', #192, #236, #13 ) ;
#299 = DIRECTION ( 'NONE',  ( -3.491481338843133355E-15, 1.224646799147353207E-16, -1.000000000000000000 ) ) ;
#300 = EDGE_CURVE ( 'NONE', #51, #124, #186, .T. ) ;
#301 = DIRECTION ( 'NONE',  ( 0.0000000000000000000, 0.0000000000000000000, 1.000000000000000000 ) ) ;
#302 = CARTESIAN_POINT ( 'NONE',  ( 2.793185071074506684E-13, -9.797174393178826052E-15, 80.00000000000000000 ) ) ;
#303 = EDGE_CURVE ( 'NONE', #51, #57, #322, .T. ) ;
#304 = MECHANICAL_CONTEXT ( 'NONE', #251, 'mechanical' ) ;
#305 = DIRECTION ( 'NONE',  ( -3.491481338843133355E-15, 1.224646799147353207E-16, -1.000000000000000000 ) ) ;
#306 = CC_DESIGN_PERSON_AND_ORGANIZATION_ASSIGNMENT ( #207, #231, ( #14 ) ) ;
#307 = APPROVAL_ROLE ( '' ) ;
#308 = ORIENTED_EDGE ( 'NONE', *, *, #300, .F. ) ;
#309 = EDGE_CURVE ( 'NONE', #38, #238, #285, .T. ) ;
#310 = CIRCLE ( 'NONE', #190, 2.149999999999996803 ) ;
#311 = AXIS2_PLACEMENT_3D ( 'NONE', #302, #23, #148 ) ;
#312 = DIRECTION ( 'NONE',  ( -3.491481338843133355E-15, 1.224646799147353207E-16, -1.000000000000000000 ) ) ;
#313 = CARTESIAN_POINT ( 'NONE',  ( 2.793185071074506684E-13, -9.797174393178826052E-15, 80.00000000000000000 ) ) ;
#314 = EDGE_CURVE ( 'NONE', #19, #149, #280, .T. ) ;
#315 = LINE ( 'NONE', #177, #147 ) ;
#316 = FACE_OUTER_BOUND ( 'NONE', #158, .T. ) ;
#317 =( NAMED_UNIT ( * ) SI_UNIT ( $, .STERADIAN. ) SOLID_ANGLE_UNIT ( ) );
#318 = VECTOR ( 'NONE', #88, 1000.000000000000000 ) ;
#319 = LINE ( 'NONE', #286, #70 ) ;
#320 = SECURITY_CLASSIFICATION_LEVEL ( 'unclassified' ) ;
#321 = ORIENTED_EDGE ( 'NONE', *, *, #289, .F. ) ;
#322 = CIRCLE ( 'NONE', #334, 2.149999999999996803 ) ;
#323 = CC_DESIGN_PERSON_AND_ORGANIZATION_ASSIGNMENT ( #123, #242, ( #205 ) ) ;
#324 = ORIENTED_EDGE ( 'NONE', *, *, #213, .F. ) ;
#325 = ORIENTED_EDGE ( 'NONE', *, *, #156, .F. ) ;
#326 = DIRECTION ( 'NONE',  ( 1.000000000000000000, 0.0000000000000000000, 0.0000000000000000000 ) ) ;
#327 = FACE_OUTER_BOUND ( 'NONE', #294, .T. ) ;
#328 = CARTESIAN_POINT ( 'NONE',  ( 2.793185071074506684E-13, -9.797174393178826052E-15, 80.00000000000000000 ) ) ;
#329 = PRODUCT_RELATED_PRODUCT_CATEGORY ( 'detail', '', ( #175 ) ) ;
#330 = CONICAL_SURFACE ( 'NONE', #126, 2.149999999999991473, 1.029744258676649649 ) ;
#331 = ORIENTED_EDGE ( 'NONE', *, *, #108, .T. ) ;
#332 = CC_DESIGN_PERSON_AND_ORGANIZATION_ASSIGNMENT ( #21, #224, ( #175 ) ) ;
#333 = DIRECTION ( 'NONE',  ( 3.491481338843133355E-15, -1.224646799147353207E-16, 1.000000000000000000 ) ) ;
#334 = AXIS2_PLACEMENT_3D ( 'NONE', #112, #69, #292 ) ;
#335 = CYLINDRICAL_SURFACE ( 'NONE', #277, 2.149999999999994138 ) ;
#336 = APPROVAL_DATE_TIME ( #26, #95 ) ;
#337 = PERSON_AND_ORGANIZATION ( #180, #197 ) ;
ENDSEC;
END-ISO-10303-21;
