ISO-10303-21;
HEADER;
FILE_DESCRIPTION (( 'STEP AP203' ),
    '1' );
FILE_NAME ('4142.step',
    '2021-09-03T07:22:11',
    ( '' ),
    ( '' ),
    'SwSTEP 2.0',
    'SolidWorks 2019',
    '' );
FILE_SCHEMA (( 'CONFIG_CONTROL_DESIGN' ));
ENDSEC;

DATA;
#1 = CIRCLE ( 'NONE', #224, 1.949999999999990408 ) ;
#2 = DIRECTION ( 'NONE',  ( -3.491481338843133355E-15, 1.224646799147353207E-16, -1.000000000000000000 ) ) ;
#3 = EDGE_CURVE ( 'NONE', #23, #142, #42, .T. ) ;
#4 = PERSON ( 'UNSPECIFIED', 'UNSPECIFIED', 'UNSPECIFIED', ('UNSPECIFIED'), ('UNSPECIFIED'), ('UNSPECIFIED') ) ;
#5 = PERSON_AND_ORGANIZATION ( #4, #122 ) ;
#6 = FACE_OUTER_BOUND ( 'NONE', #46, .T. ) ;
#7 = CARTESIAN_POINT ( 'NONE',  ( 4.090892595231919609E-15, -1.434891965960316049E-16, 1.171678207103749036 ) ) ;
#8 = APPROVAL ( #329, 'UNSPECIFIED' ) ;
#9 = SECURITY_CLASSIFICATION ( '', '', #55 ) ;
#10 = CARTESIAN_POINT ( 'NONE',  ( 5.935518276033326704E-14, -2.081899558550500280E-15, 17.00000000000000000 ) ) ;
#11 =( NAMED_UNIT ( * ) PLANE_ANGLE_UNIT ( ) SI_UNIT ( $, .RADIAN. ) );
#12 = DIRECTION ( 'NONE',  ( 3.950625526948199733E-31, 1.000000000000000000, 1.112002228190267608E-16 ) ) ;
#13 = AXIS2_PLACEMENT_3D ( 'NONE', #44, #222, #124 ) ;
#14 = CARTESIAN_POINT ( 'NONE',  ( 1.920314736363723472E-13, -6.735557395310442615E-15, 55.00000000000000000 ) ) ;
#15 = CARTESIAN_POINT ( 'NONE',  ( 5.935518276033326704E-14, -2.081899558550500280E-15, 17.00000000000000000 ) ) ;
#16 = PERSON_AND_ORGANIZATION ( #4, #122 ) ;
#17 = CC_DESIGN_PERSON_AND_ORGANIZATION_ASSIGNMENT ( #16, #259, ( #139 ) ) ;
#18 = PERSON_AND_ORGANIZATION ( #4, #122 ) ;
#19 = CIRCLE ( 'NONE', #216, 1.949999999999990408 ) ;
#20 = CIRCLE ( 'NONE', #160, 1.549999999999994715 ) ;
#21 = DESIGN_CONTEXT ( 'detailed design', #71, 'design' ) ;
#22 = APPLICATION_PROTOCOL_DEFINITION ( 'international standard', 'config_control_design', 1994, #71 ) ;
#23 = VERTEX_POINT ( 'NONE', #37 ) ;
#24 = AXIS2_PLACEMENT_3D ( 'NONE', #135, #26, #84 ) ;
#25 = ADVANCED_FACE ( 'NONE', ( #254 ), #197, .T. ) ;
#26 = DIRECTION ( 'NONE',  ( -3.491481338843133355E-15, 1.224646799147353207E-16, -1.000000000000000000 ) ) ;
#27 = CONICAL_SURFACE ( 'NONE', #173, 1.549999999999994715, 0.7853981633974602694 ) ;
#28 = CARTESIAN_POINT ( 'NONE',  ( 1.915474905584545133E-13, -1.550000000000001377, 55.00000000000000000 ) ) ;
#29 = CALENDAR_DATE ( 2021, 3, 9 ) ;
#30 = DIRECTION ( 'NONE',  ( -3.491481338843133355E-15, 1.224646799147353207E-16, -1.000000000000000000 ) ) ;
#31 = EDGE_CURVE ( 'NONE', #195, #252, #276, .T. ) ;
#32 = EDGE_LOOP ( 'NONE', ( #307, #38, #278, #136 ) ) ;
#33 = DIRECTION ( 'NONE',  ( -3.491481338843133355E-15, 1.224646799147353207E-16, -1.000000000000000000 ) ) ;
#34 = AXIS2_PLACEMENT_3D ( 'NONE', #315, #159, #83 ) ;
#35 = APPROVAL_PERSON_ORGANIZATION ( #334, #8, #96 ) ;
#36 = ORIENTED_EDGE ( 'NONE', *, *, #31, .F. ) ;
#37 = CARTESIAN_POINT ( 'NONE',  ( 1.252338380564177827E-13, -1.950000000000001732, 54.60000000000000853 ) ) ;
#38 = ORIENTED_EDGE ( 'NONE', *, *, #308, .T. ) ;
#39 = DIRECTION ( 'NONE',  ( -3.491481338843133355E-15, 1.224646799147353207E-16, -1.000000000000000000 ) ) ;
#40 = EDGE_LOOP ( 'NONE', ( #171, #118 ) ) ;
#41 = DIRECTION ( 'NONE',  ( -3.491481338843133355E-15, 1.224646799147353207E-16, -1.000000000000000000 ) ) ;
#42 = LINE ( 'NONE', #145, #151 ) ;
#43 = ORIENTED_EDGE ( 'NONE', *, *, #209, .T. ) ;
#44 = CARTESIAN_POINT ( 'NONE',  ( 5.935518276033326704E-14, 1.462265788095301041E-32, 17.00000000000000000 ) ) ;
#45 = ADVANCED_FACE ( 'NONE', ( #106 ), #27, .T. ) ;
#46 = EDGE_LOOP ( 'NONE', ( #279, #66, #317 ) ) ;
#47 = CIRCLE ( 'NONE', #34, 1.949999999999994849 ) ;
#48 =( GEOMETRIC_REPRESENTATION_CONTEXT ( 3 ) GLOBAL_UNCERTAINTY_ASSIGNED_CONTEXT ( ( #257 ) ) GLOBAL_UNIT_ASSIGNED_CONTEXT ( ( #327, #11, #328 ) ) REPRESENTATION_CONTEXT ( 'NONE', 'WORKASPACE' ) );
#49 = CYLINDRICAL_SURFACE ( 'NONE', #143, 1.949999999999992628 ) ;
#50 = DIRECTION ( 'NONE',  ( -3.491481338843133355E-15, 1.224646799147353207E-16, -1.000000000000000000 ) ) ;
#51 = FACE_OUTER_BOUND ( 'NONE', #87, .T. ) ;
#52 = DIRECTION ( 'NONE',  ( 0.0000000000000000000, 1.000000000000000000, 0.0000000000000000000 ) ) ;
#53 = EDGE_CURVE ( 'NONE', #274, #226, #268, .T. ) ;
#54 = CALENDAR_DATE ( 2021, 3, 9 ) ;
#55 = SECURITY_CLASSIFICATION_LEVEL ( 'unclassified' ) ;
#56 = VECTOR ( 'NONE', #74, 1000.000000000000000 ) ;
#57 = AXIS2_PLACEMENT_3D ( 'NONE', #92, #41, #238 ) ;
#58 = PERSON_AND_ORGANIZATION_ROLE ( 'design_supplier' ) ;
#59 = EDGE_LOOP ( 'NONE', ( #169, #206 ) ) ;
#60 = AXIS2_PLACEMENT_3D ( 'NONE', #229, #196, #300 ) ;
#61 = CC_DESIGN_SECURITY_CLASSIFICATION ( #9, ( #251 ) ) ;
#62 = DIRECTION ( 'NONE',  ( -3.491481338843133355E-15, 1.224646799147353207E-16, -1.000000000000000000 ) ) ;
#63 = PERSON_AND_ORGANIZATION_ROLE ( 'creator' ) ;
#64 = APPLICATION_PROTOCOL_DEFINITION ( 'international standard', 'config_control_design', 1994, #78 ) ;
#65 = CYLINDRICAL_SURFACE ( 'NONE', #57, 1.949999999999992628 ) ;
#66 = ORIENTED_EDGE ( 'NONE', *, *, #93, .T. ) ;
#67 = AXIS2_PLACEMENT_3D ( 'NONE', #14, #33, #241 ) ;
#68 = ORIENTED_EDGE ( 'NONE', *, *, #219, .T. ) ;
#69 = LINE ( 'NONE', #256, #203 ) ;
#70 = EDGE_CURVE ( 'NONE', #23, #175, #47, .T. ) ;
#71 = APPLICATION_CONTEXT ( 'configuration controlled 3d designs of mechanical parts and assemblies' ) ;
#72 = EDGE_LOOP ( 'NONE', ( #333, #185, #243 ) ) ;
#73 = ORIENTED_EDGE ( 'NONE', *, *, #31, .T. ) ;
#74 = DIRECTION ( 'NONE',  ( -3.491481338843133355E-15, 1.224646799147353207E-16, -1.000000000000000000 ) ) ;
#75 = AXIS2_PLACEMENT_3D ( 'NONE', #214, #86, #186 ) ;
#76 = ORIENTED_EDGE ( 'NONE', *, *, #332, .F. ) ;
#77 = APPROVAL_STATUS ( 'not_yet_approved' ) ;
#78 = APPLICATION_CONTEXT ( 'configuration controlled 3d designs of mechanical parts and assemblies' ) ;
#79 = COORDINATED_UNIVERSAL_TIME_OFFSET ( 1, 0, .AHEAD. ) ;
#80 = CARTESIAN_POINT ( 'NONE',  ( 1.906348811008351191E-13, -6.686571523344549975E-15, 54.60000000000000853 ) ) ;
#81 = CIRCLE ( 'NONE', #67, 1.549999999999994715 ) ;
#82 = DIRECTION ( 'NONE',  ( -3.491481338843133355E-15, 1.224646799147353207E-16, -1.000000000000000000 ) ) ;
#83 = DIRECTION ( 'NONE',  ( 0.0000000000000000000, 1.000000000000000000, 0.0000000000000000000 ) ) ;
#84 = DIRECTION ( 'NONE',  ( 4.275831445896958607E-31, 1.000000000000000000, 1.224646799147353207E-16 ) ) ;
#85 = ORIENTED_EDGE ( 'NONE', *, *, #3, .F. ) ;
#86 = DIRECTION ( 'NONE',  ( 0.0000000000000000000, 0.0000000000000000000, 1.000000000000000000 ) ) ;
#87 = EDGE_LOOP ( 'NONE', ( #326, #199, #117, #295 ) ) ;
#88 = LINE ( 'NONE', #248, #166 ) ;
#89 = ADVANCED_FACE ( 'NONE', ( #132 ), #272, .F. ) ;
#90 = APPROVAL_DATE_TIME ( #153, #281 ) ;
#91 = CARTESIAN_POINT ( 'NONE',  ( 4.090892595231918820E-15, -1.949999999999988631, 1.171678207103748814 ) ) ;
#92 = CARTESIAN_POINT ( 'NONE',  ( 0.0000000000000000000, 0.0000000000000000000, 0.0000000000000000000 ) ) ;
#93 = EDGE_CURVE ( 'NONE', #274, #323, #311, .T. ) ;
#94 = FACE_OUTER_BOUND ( 'NONE', #215, .T. ) ;
#95 = DIRECTION ( 'NONE',  ( -2.382254525458685521E-15, -0.7071067811865558994, -0.7071067811865392461 ) ) ;
#96 = APPROVAL_ROLE ( '' ) ;
#97 = CC_DESIGN_DATE_AND_TIME_ASSIGNMENT ( #133, #318, ( #9 ) ) ;
#98 = APPROVAL_STATUS ( 'not_yet_approved' ) ;
#99 = CONICAL_SURFACE ( 'NONE', #288, 1.949999999999988409, 1.029744258676649427 ) ;
#100 = LOCAL_TIME ( 9, 22, 11.00000000000000000, #79 ) ;
#101 = EDGE_LOOP ( 'NONE', ( #73, #43, #325, #165 ) ) ;
#102 = CARTESIAN_POINT ( 'NONE',  ( 4.329698721065652043E-15, 1.949999999999988187, 1.171678207103749259 ) ) ;
#103 = APPROVAL ( #77, 'UNSPECIFIED' ) ;
#104 = DIRECTION ( 'NONE',  ( -3.491481338843133355E-15, 1.224646799147353207E-16, -1.000000000000000000 ) ) ;
#105 = CARTESIAN_POINT ( 'NONE',  ( 8.337871319499024529E-31, 1.949999999999989519, 2.388061258337325824E-16 ) ) ;
#106 = FACE_OUTER_BOUND ( 'NONE', #32, .T. ) ;
#107 = APPROVAL_PERSON_ORGANIZATION ( #149, #281, #232 ) ;
#108 = VERTEX_POINT ( 'NONE', #269 ) ;
#109 = DIRECTION ( 'NONE',  ( 0.0000000000000000000, 1.000000000000000000, 0.0000000000000000000 ) ) ;
#110 = DIRECTION ( 'NONE',  ( -3.491481338843133355E-15, 1.224646799147353207E-16, -1.000000000000000000 ) ) ;
#111 = EDGE_CURVE ( 'NONE', #226, #323, #312, .T. ) ;
#112 = DIRECTION ( 'NONE',  ( 0.0000000000000000000, 1.000000000000000000, 0.0000000000000000000 ) ) ;
#113 = PERSON_AND_ORGANIZATION ( #4, #122 ) ;
#114 = AXIS2_PLACEMENT_3D ( 'NONE', #80, #231, #158 ) ;
#115 = ORIENTED_EDGE ( 'NONE', *, *, #3, .T. ) ;
#116 = FACE_OUTER_BOUND ( 'NONE', #140, .T. ) ;
#117 = ORIENTED_EDGE ( 'NONE', *, *, #255, .F. ) ;
#118 = ORIENTED_EDGE ( 'NONE', *, *, #308, .F. ) ;
#119 = COORDINATED_UNIVERSAL_TIME_OFFSET ( 1, 0, .AHEAD. ) ;
#120 = AXIS2_PLACEMENT_3D ( 'NONE', #296, #244, #12 ) ;
#121 = ORIENTED_EDGE ( 'NONE', *, *, #209, .F. ) ;
#122 = ORGANIZATION ( 'UNSPECIFIED', 'UNSPECIFIED', '' ) ;
#123 = ORIENTED_EDGE ( 'NONE', *, *, #70, .T. ) ;
#124 = DIRECTION ( 'NONE',  ( -4.275831445896958607E-31, -1.000000000000000000, -1.224646799147353207E-16 ) ) ;
#125 = EDGE_CURVE ( 'NONE', #252, #195, #297, .T. ) ;
#126 = FACE_OUTER_BOUND ( 'NONE', #59, .T. ) ;
#127 = EDGE_CURVE ( 'NONE', #220, #258, #81, .T. ) ;
#128 = CARTESIAN_POINT ( 'NONE',  ( 0.0000000000000000000, 0.0000000000000000000, 0.0000000000000000000 ) ) ;
#129 = CARTESIAN_POINT ( 'NONE',  ( 1.920314736363723472E-13, -6.735557395310442615E-15, 55.00000000000000000 ) ) ;
#130 = DIRECTION ( 'NONE',  ( -3.491481338843133355E-15, 1.224646799147353207E-16, -1.000000000000000000 ) ) ;
#131 = EDGE_CURVE ( 'NONE', #108, #142, #19, .T. ) ;
#132 = FACE_OUTER_BOUND ( 'NONE', #40, .T. ) ;
#133 = DATE_AND_TIME ( #29, #174 ) ;
#134 = CYLINDRICAL_SURFACE ( 'NONE', #250, 1.949999999999989519 ) ;
#135 = CARTESIAN_POINT ( 'NONE',  ( 1.920314736363723472E-13, 1.162313831562925551E-32, 55.00000000000000000 ) ) ;
#136 = ORIENTED_EDGE ( 'NONE', *, *, #70, .F. ) ;
#137 = AXIS2_PLACEMENT_3D ( 'NONE', #230, #50, #287 ) ;
#138 = ORIENTED_EDGE ( 'NONE', *, *, #233, .T. ) ;
#139 = PRODUCT ( '4142', '4142', '', ( #221 ) ) ;
#140 = EDGE_LOOP ( 'NONE', ( #85, #123, #138, #76 ) ) ;
#141 = DIRECTION ( 'NONE',  ( -3.491481338843133355E-15, 1.224646799147353207E-16, -1.000000000000000000 ) ) ;
#142 = VERTEX_POINT ( 'NONE', #189 ) ;
#143 = AXIS2_PLACEMENT_3D ( 'NONE', #337, #104, #156 ) ;
#144 = COORDINATED_UNIVERSAL_TIME_OFFSET ( 1, 0, .AHEAD. ) ;
#145 = CARTESIAN_POINT ( 'NONE',  ( 2.388061258337321387E-16, -1.949999999999992628, -2.388061258337338150E-16 ) ) ;
#146 = PLANE ( 'NONE',  #60 ) ;
#147 = EDGE_CURVE ( 'NONE', #323, #226, #273, .T. ) ;
#148 = CC_DESIGN_APPROVAL ( #103, ( #9 ) ) ;
#149 = PERSON_AND_ORGANIZATION ( #4, #122 ) ;
#150 = EDGE_CURVE ( 'NONE', #220, #175, #88, .T. ) ;
#151 = VECTOR ( 'NONE', #62, 1000.000000000000000 ) ;
#152 = AXIS2_PLACEMENT_3D ( 'NONE', #267, #321, #190 ) ;
#153 = DATE_AND_TIME ( #54, #100 ) ;
#154 = CARTESIAN_POINT ( 'NONE',  ( 1.920314736363723472E-13, -6.735557395310442615E-15, 55.00000000000000000 ) ) ;
#155 = DIRECTION ( 'NONE',  ( 3.950625526948199733E-31, 1.000000000000000000, 1.112002228190267608E-16 ) ) ;
#156 = DIRECTION ( 'NONE',  ( 4.275831445896958607E-31, 1.000000000000000000, 1.224646799147353207E-16 ) ) ;
#157 = CC_DESIGN_PERSON_AND_ORGANIZATION_ASSIGNMENT ( #5, #58, ( #251 ) ) ;
#158 = DIRECTION ( 'NONE',  ( 0.0000000000000000000, 1.000000000000000000, 0.0000000000000000000 ) ) ;
#159 = DIRECTION ( 'NONE',  ( -3.491481338843133355E-15, 1.224646799147353207E-16, -1.000000000000000000 ) ) ;
#160 = AXIS2_PLACEMENT_3D ( 'NONE', #129, #2, #236 ) ;
#161 = LINE ( 'NONE', #105, #191 ) ;
#162 = DIRECTION ( 'NONE',  ( -3.491481338843133355E-15, 1.224646799147353207E-16, -1.000000000000000000 ) ) ;
#163 = MANIFOLD_SOLID_BREP ( 'Corps-Déplacer/Copier1[2]', #283 ) ;
#164 = CC_DESIGN_PERSON_AND_ORGANIZATION_ASSIGNMENT ( #113, #63, ( #251 ) ) ;
#165 = ORIENTED_EDGE ( 'NONE', *, *, #219, .F. ) ;
#166 = VECTOR ( 'NONE', #178, 1000.000000000000000 ) ;
#167 = MANIFOLD_SOLID_BREP ( 'Corps-Déplacer/Copier1[1]', #319 ) ;
#168 = DIRECTION ( 'NONE',  ( -3.491481338843133355E-15, 1.224646799147353207E-16, -1.000000000000000000 ) ) ;
#169 = ORIENTED_EDGE ( 'NONE', *, *, #131, .T. ) ;
#170 = CALENDAR_DATE ( 2021, 3, 9 ) ;
#171 = ORIENTED_EDGE ( 'NONE', *, *, #127, .F. ) ;
#172 = ADVANCED_FACE ( 'NONE', ( #94 ), #261, .T. ) ;
#173 = AXIS2_PLACEMENT_3D ( 'NONE', #322, #162, #52 ) ;
#174 = LOCAL_TIME ( 9, 22, 11.00000000000000000, #270 ) ;
#175 = VERTEX_POINT ( 'NONE', #205 ) ;
#176 = EDGE_LOOP ( 'NONE', ( #121, #218, #68, #331 ) ) ;
#177 = ADVANCED_FACE ( 'NONE', ( #126 ), #146, .F. ) ;
#178 = DIRECTION ( 'NONE',  ( -2.468850131082235367E-15, 0.7071067811865561215, -0.7071067811865389130 ) ) ;
#179 = FACE_OUTER_BOUND ( 'NONE', #242, .T. ) ;
#180 = VECTOR ( 'NONE', #314, 1000.000000000000114 ) ;
#181 = CARTESIAN_POINT ( 'NONE',  ( 3.196184380361630209E-14, -1.949999999999992628, 17.00000000000000000 ) ) ;
#182 = DIRECTION ( 'NONE',  ( -3.950625526948199733E-31, -1.000000000000000000, -1.112002228190267608E-16 ) ) ;
#183 = DIRECTION ( 'NONE',  ( 1.798245827342160711E-15, -0.8571673007021097801, 0.5150380749100583744 ) ) ;
#184 = PERSON_AND_ORGANIZATION ( #4, #122 ) ;
#185 = ORIENTED_EDGE ( 'NONE', *, *, #53, .T. ) ;
#186 = DIRECTION ( 'NONE',  ( 1.000000000000000000, 0.0000000000000000000, 0.0000000000000000000 ) ) ;
#187 = EDGE_CURVE ( 'NONE', #258, #23, #69, .T. ) ;
#188 = ORIENTED_EDGE ( 'NONE', *, *, #125, .F. ) ;
#189 = CARTESIAN_POINT ( 'NONE',  ( 1.252338380564178837E-13, -1.949999999999992628, 17.00000000000000000 ) ) ;
#190 = DIRECTION ( 'NONE',  ( -3.950625526948199733E-31, -1.000000000000000000, -1.112002228190267608E-16 ) ) ;
#191 = VECTOR ( 'NONE', #82, 1000.000000000000000 ) ;
#192 = CONICAL_SURFACE ( 'NONE', #305, 1.549999999999994715, 0.7853981633974602694 ) ;
#193 = ORIENTED_EDGE ( 'NONE', *, *, #255, .T. ) ;
#194 = CC_DESIGN_PERSON_AND_ORGANIZATION_ASSIGNMENT ( #18, #335, ( #304 ) ) ;
#195 = VERTEX_POINT ( 'NONE', #330 ) ;
#196 = DIRECTION ( 'NONE',  ( 3.491481338843133355E-15, -1.224646799147353207E-16, 1.000000000000000000 ) ) ;
#197 = CYLINDRICAL_SURFACE ( 'NONE', #239, 1.949999999999989519 ) ;
#198 = CC_DESIGN_PERSON_AND_ORGANIZATION_ASSIGNMENT ( #211, #213, ( #9 ) ) ;
#199 = ORIENTED_EDGE ( 'NONE', *, *, #187, .T. ) ;
#200 = LINE ( 'NONE', #303, #56 ) ;
#201 = CALENDAR_DATE ( 2021, 3, 9 ) ;
#202 = APPROVAL_ROLE ( '' ) ;
#203 = VECTOR ( 'NONE', #95, 999.9999999999998863 ) ;
#204 = CONICAL_SURFACE ( 'NONE', #152, 1.949999999999988409, 1.029744258676649427 ) ;
#205 = CARTESIAN_POINT ( 'NONE',  ( 1.906348811008351191E-13, 1.949999999999988187, 54.60000000000000853 ) ) ;
#206 = ORIENTED_EDGE ( 'NONE', *, *, #332, .T. ) ;
#207 = CARTESIAN_POINT ( 'NONE',  ( 4.090892595231919609E-15, -1.434891965960316049E-16, 1.171678207103749036 ) ) ;
#208 = FACE_OUTER_BOUND ( 'NONE', #72, .T. ) ;
#209 = EDGE_CURVE ( 'NONE', #252, #323, #200, .T. ) ;
#210 = CARTESIAN_POINT ( 'NONE',  ( 4.329698721065652043E-15, 1.949999999999988187, 1.171678207103749259 ) ) ;
#211 = PERSON_AND_ORGANIZATION ( #4, #122 ) ;
#212 = DIRECTION ( 'NONE',  ( 0.0000000000000000000, 1.000000000000000000, 0.0000000000000000000 ) ) ;
#213 = PERSON_AND_ORGANIZATION_ROLE ( 'classification_officer' ) ;
#214 = CARTESIAN_POINT ( 'NONE',  ( 0.0000000000000000000, 0.0000000000000000000, 0.0000000000000000000 ) ) ;
#215 = EDGE_LOOP ( 'NONE', ( #36, #188 ) ) ;
#216 = AXIS2_PLACEMENT_3D ( 'NONE', #10, #141, #299 ) ;
#217 = ADVANCED_FACE ( 'NONE', ( #292 ), #134, .T. ) ;
#218 = ORIENTED_EDGE ( 'NONE', *, *, #125, .T. ) ;
#219 = EDGE_CURVE ( 'NONE', #195, #226, #161, .T. ) ;
#220 = VERTEX_POINT ( 'NONE', #336 ) ;
#221 = MECHANICAL_CONTEXT ( 'NONE', #78, 'mechanical' ) ;
#222 = DIRECTION ( 'NONE',  ( 3.491481338843133355E-15, -1.224646799147353207E-16, 1.000000000000000000 ) ) ;
#223 = AXIS2_PLACEMENT_3D ( 'NONE', #7, #265, #155 ) ;
#224 = AXIS2_PLACEMENT_3D ( 'NONE', #293, #168, #109 ) ;
#225 = DATE_AND_TIME ( #201, #235 ) ;
#226 = VERTEX_POINT ( 'NONE', #102 ) ;
#227 = ADVANCED_FACE ( 'NONE', ( #208 ), #99, .T. ) ;
#228 = ADVANCED_BREP_SHAPE_REPRESENTATION ( '4142', ( #167, #163, #75 ), #48 ) ;
#229 = CARTESIAN_POINT ( 'NONE',  ( 5.935518276033326704E-14, 1.462265788095301041E-32, 17.00000000000000000 ) ) ;
#230 = CARTESIAN_POINT ( 'NONE',  ( 5.935518276033326704E-14, -2.081899558550500280E-15, 17.00000000000000000 ) ) ;
#231 = DIRECTION ( 'NONE',  ( -3.491481338843133355E-15, 1.224646799147353207E-16, -1.000000000000000000 ) ) ;
#232 = APPROVAL_ROLE ( '' ) ;
#233 = EDGE_CURVE ( 'NONE', #175, #108, #286, .T. ) ;
#234 = VECTOR ( 'NONE', #183, 1000.000000000000000 ) ;
#235 = LOCAL_TIME ( 9, 22, 11.00000000000000000, #119 ) ;
#236 = DIRECTION ( 'NONE',  ( 0.0000000000000000000, 1.000000000000000000, 0.0000000000000000000 ) ) ;
#237 = CARTESIAN_POINT ( 'NONE',  ( 4.090892595231918820E-15, -1.949999999999988631, 1.171678207103748814 ) ) ;
#238 = DIRECTION ( 'NONE',  ( 4.275831445896958607E-31, 1.000000000000000000, 1.224646799147353207E-16 ) ) ;
#239 = AXIS2_PLACEMENT_3D ( 'NONE', #245, #110, #306 ) ;
#240 = LOCAL_TIME ( 9, 22, 11.00000000000000000, #144 ) ;
#241 = DIRECTION ( 'NONE',  ( 0.0000000000000000000, 1.000000000000000000, 0.0000000000000000000 ) ) ;
#242 = EDGE_LOOP ( 'NONE', ( #193, #115, #277, #246 ) ) ;
#243 = ORIENTED_EDGE ( 'NONE', *, *, #111, .T. ) ;
#244 = DIRECTION ( 'NONE',  ( -3.491481338843133355E-15, 1.224646799147353207E-16, -1.000000000000000000 ) ) ;
#245 = CARTESIAN_POINT ( 'NONE',  ( 0.0000000000000000000, 0.0000000000000000000, 0.0000000000000000000 ) ) ;
#246 = ORIENTED_EDGE ( 'NONE', *, *, #233, .F. ) ;
#247 = CC_DESIGN_DATE_AND_TIME_ASSIGNMENT ( #225, #302, ( #304 ) ) ;
#248 = CARTESIAN_POINT ( 'NONE',  ( 1.920314736363723472E-13, 1.549999999999988054, 55.00000000000000000 ) ) ;
#249 = VECTOR ( 'NONE', #313, 1000.000000000000000 ) ;
#250 = AXIS2_PLACEMENT_3D ( 'NONE', #128, #30, #285 ) ;
#251 = PRODUCT_DEFINITION_FORMATION_WITH_SPECIFIED_SOURCE ( 'ANY', '', #139, .NOT_KNOWN. ) ;
#252 = VERTEX_POINT ( 'NONE', #181 ) ;
#253 = CALENDAR_DATE ( 2021, 3, 9 ) ;
#254 = FACE_OUTER_BOUND ( 'NONE', #176, .T. ) ;
#255 = EDGE_CURVE ( 'NONE', #175, #23, #289, .T. ) ;
#256 = CARTESIAN_POINT ( 'NONE',  ( 1.922212938902401854E-13, -1.550000000000001377, 55.00000000000000000 ) ) ;
#257 = UNCERTAINTY_MEASURE_WITH_UNIT (LENGTH_MEASURE( 1.000000000000000082E-05 ), #327, 'distance_accuracy_value', 'NONE');
#258 = VERTEX_POINT ( 'NONE', #28 ) ;
#259 = PERSON_AND_ORGANIZATION_ROLE ( 'design_owner' ) ;
#260 = PRODUCT_DEFINITION_SHAPE ( 'NONE', 'NONE',  #304 ) ;
#261 = PLANE ( 'NONE',  #13 ) ;
#262 = ADVANCED_FACE ( 'NONE', ( #179 ), #49, .T. ) ;
#263 = COORDINATED_UNIVERSAL_TIME_OFFSET ( 1, 0, .AHEAD. ) ;
#264 = AXIS2_PLACEMENT_3D ( 'NONE', #15, #39, #112 ) ;
#265 = DIRECTION ( 'NONE',  ( -3.491481338843133355E-15, 1.224646799147353207E-16, -1.000000000000000000 ) ) ;
#266 = PRODUCT_RELATED_PRODUCT_CATEGORY ( 'detail', '', ( #139 ) ) ;
#267 = CARTESIAN_POINT ( 'NONE',  ( 4.090892595231919609E-15, -1.434891965960316049E-16, 1.171678207103749036 ) ) ;
#268 = LINE ( 'NONE', #210, #180 ) ;
#269 = CARTESIAN_POINT ( 'NONE',  ( 5.935518276033326704E-14, 1.949999999999988187, 17.00000000000000000 ) ) ;
#270 = COORDINATED_UNIVERSAL_TIME_OFFSET ( 1, 0, .AHEAD. ) ;
#271 = DATE_AND_TIME ( #170, #298 ) ;
#272 = PLANE ( 'NONE',  #24 ) ;
#273 = CIRCLE ( 'NONE', #120, 1.949999999999988409 ) ;
#274 = VERTEX_POINT ( 'NONE', #284 ) ;
#275 = SHAPE_DEFINITION_REPRESENTATION ( #260, #228 ) ;
#276 = CIRCLE ( 'NONE', #137, 1.949999999999990408 ) ;
#277 = ORIENTED_EDGE ( 'NONE', *, *, #131, .F. ) ;
#278 = ORIENTED_EDGE ( 'NONE', *, *, #150, .T. ) ;
#279 = ORIENTED_EDGE ( 'NONE', *, *, #53, .F. ) ;
#280 = CC_DESIGN_APPROVAL ( #8, ( #304 ) ) ;
#281 = APPROVAL ( #98, 'UNSPECIFIED' ) ;
#282 = APPROVAL_DATE_TIME ( #301, #8 ) ;
#283 = CLOSED_SHELL ( 'NONE', ( #217, #227, #316, #25, #172 ) ) ;
#284 = CARTESIAN_POINT ( 'NONE',  ( 0.0000000000000000000, 0.0000000000000000000, 0.0000000000000000000 ) ) ;
#285 = DIRECTION ( 'NONE',  ( 4.275831445896958607E-31, 1.000000000000000000, 1.224646799147353207E-16 ) ) ;
#286 = LINE ( 'NONE', #309, #249 ) ;
#287 = DIRECTION ( 'NONE',  ( 0.0000000000000000000, 1.000000000000000000, 0.0000000000000000000 ) ) ;
#288 = AXIS2_PLACEMENT_3D ( 'NONE', #207, #310, #182 ) ;
#289 = CIRCLE ( 'NONE', #114, 1.949999999999994849 ) ;
#290 = ADVANCED_FACE ( 'NONE', ( #51 ), #192, .T. ) ;
#291 = APPROVAL_PERSON_ORGANIZATION ( #184, #103, #202 ) ;
#292 = FACE_OUTER_BOUND ( 'NONE', #101, .T. ) ;
#293 = CARTESIAN_POINT ( 'NONE',  ( 5.935518276033326704E-14, -2.081899558550500280E-15, 17.00000000000000000 ) ) ;
#294 = APPROVAL_DATE_TIME ( #271, #103 ) ;
#295 = ORIENTED_EDGE ( 'NONE', *, *, #150, .F. ) ;
#296 = CARTESIAN_POINT ( 'NONE',  ( 4.090892595231919609E-15, -1.434891965960316049E-16, 1.171678207103749036 ) ) ;
#297 = CIRCLE ( 'NONE', #264, 1.949999999999990408 ) ;
#298 = LOCAL_TIME ( 9, 22, 11.00000000000000000, #263 ) ;
#299 = DIRECTION ( 'NONE',  ( 0.0000000000000000000, 1.000000000000000000, 0.0000000000000000000 ) ) ;
#300 = DIRECTION ( 'NONE',  ( -4.275831445896958607E-31, -1.000000000000000000, -1.224646799147353207E-16 ) ) ;
#301 = DATE_AND_TIME ( #253, #240 ) ;
#302 = DATE_TIME_ROLE ( 'creation_date' ) ;
#303 = CARTESIAN_POINT ( 'NONE',  ( 2.388061258337317935E-16, -1.949999999999989519, -2.388061258337334206E-16 ) ) ;
#304 = PRODUCT_DEFINITION ( 'UNKNOWN', '', #251, #21 ) ;
#305 = AXIS2_PLACEMENT_3D ( 'NONE', #154, #130, #212 ) ;
#306 = DIRECTION ( 'NONE',  ( 4.275831445896958607E-31, 1.000000000000000000, 1.224646799147353207E-16 ) ) ;
#307 = ORIENTED_EDGE ( 'NONE', *, *, #187, .F. ) ;
#308 = EDGE_CURVE ( 'NONE', #258, #220, #20, .T. ) ;
#309 = CARTESIAN_POINT ( 'NONE',  ( 8.337871319499038542E-31, 1.949999999999992628, 2.388061258337329768E-16 ) ) ;
#310 = DIRECTION ( 'NONE',  ( 3.491481338843133355E-15, -1.224646799147353207E-16, 1.000000000000000000 ) ) ;
#311 = LINE ( 'NONE', #237, #234 ) ;
#312 = CIRCLE ( 'NONE', #223, 1.949999999999988409 ) ;
#313 = DIRECTION ( 'NONE',  ( -3.491481338843133355E-15, 1.224646799147353207E-16, -1.000000000000000000 ) ) ;
#314 = DIRECTION ( 'NONE',  ( 1.903218546456023111E-15, 0.8571673007021096691, 0.5150380749100587074 ) ) ;
#315 = CARTESIAN_POINT ( 'NONE',  ( 1.906348811008351191E-13, -6.686571523344549975E-15, 54.60000000000000853 ) ) ;
#316 = ADVANCED_FACE ( 'NONE', ( #6 ), #204, .T. ) ;
#317 = ORIENTED_EDGE ( 'NONE', *, *, #147, .T. ) ;
#318 = DATE_TIME_ROLE ( 'classification_date' ) ;
#319 = CLOSED_SHELL ( 'NONE', ( #290, #262, #177, #324, #45, #89 ) ) ;
#320 = CC_DESIGN_APPROVAL ( #281, ( #251 ) ) ;
#321 = DIRECTION ( 'NONE',  ( 3.491481338843133355E-15, -1.224646799147353207E-16, 1.000000000000000000 ) ) ;
#322 = CARTESIAN_POINT ( 'NONE',  ( 1.920314736363723472E-13, -6.735557395310442615E-15, 55.00000000000000000 ) ) ;
#323 = VERTEX_POINT ( 'NONE', #91 ) ;
#324 = ADVANCED_FACE ( 'NONE', ( #116 ), #65, .T. ) ;
#325 = ORIENTED_EDGE ( 'NONE', *, *, #111, .F. ) ;
#326 = ORIENTED_EDGE ( 'NONE', *, *, #127, .T. ) ;
#327 =( LENGTH_UNIT ( ) NAMED_UNIT ( * ) SI_UNIT ( .MILLI., .METRE. ) );
#328 =( NAMED_UNIT ( * ) SI_UNIT ( $, .STERADIAN. ) SOLID_ANGLE_UNIT ( ) );
#329 = APPROVAL_STATUS ( 'not_yet_approved' ) ;
#330 = CARTESIAN_POINT ( 'NONE',  ( 5.935518276033326704E-14, 1.949999999999988187, 17.00000000000000000 ) ) ;
#331 = ORIENTED_EDGE ( 'NONE', *, *, #147, .F. ) ;
#332 = EDGE_CURVE ( 'NONE', #142, #108, #1, .T. ) ;
#333 = ORIENTED_EDGE ( 'NONE', *, *, #93, .F. ) ;
#334 = PERSON_AND_ORGANIZATION ( #4, #122 ) ;
#335 = PERSON_AND_ORGANIZATION_ROLE ( 'creator' ) ;
#336 = CARTESIAN_POINT ( 'NONE',  ( 1.920314736363723472E-13, 1.549999999999988054, 55.00000000000000000 ) ) ;
#337 = CARTESIAN_POINT ( 'NONE',  ( 0.0000000000000000000, 0.0000000000000000000, 0.0000000000000000000 ) ) ;
ENDSEC;
END-ISO-10303-21;
