ISO-10303-21;
HEADER;
FILE_DESCRIPTION (( 'STEP AP203' ),
    '1' );
FILE_NAME ('41370.step',
    '2021-09-02T13:22:44',
    ( '' ),
    ( '' ),
    'SwSTEP 2.0',
    'SolidWorks 2019',
    '' );
FILE_SCHEMA (( 'CONFIG_CONTROL_DESIGN' ));
ENDSEC;

DATA;
#1 = CARTESIAN_POINT ( 'NONE',  ( 1.603630884308273181E-13, -0.7500000000000038858, 46.00000000000000000 ) ) ;
#2 = CARTESIAN_POINT ( 'NONE',  ( 0.0000000000000000000, 0.0000000000000000000, 0.0000000000000000000 ) ) ;
#3 = CC_DESIGN_DATE_AND_TIME_ASSIGNMENT ( #325, #245, ( #56 ) ) ;
#4 = DIRECTION ( 'NONE',  ( -3.491481338843133355E-15, 1.224646799147353207E-16, -1.000000000000000000 ) ) ;
#5 = CONICAL_SURFACE ( 'NONE', #307, 0.9499999999999926281, 1.029744258676649871 ) ;
#6 = CARTESIAN_POINT ( 'NONE',  ( 2.109340402570440942E-15, 0.9499999999999925171, 0.5708175880761839904 ) ) ;
#7 = FACE_OUTER_BOUND ( 'NONE', #153, .T. ) ;
#8 = CALENDAR_DATE ( 2021, 2, 9 ) ;
#9 = DIRECTION ( 'NONE',  ( -3.491481338843133355E-15, 1.224646799147353207E-16, -1.000000000000000000 ) ) ;
#10 = DIRECTION ( 'NONE',  ( -3.491481338843133355E-15, 1.224646799147353207E-16, -1.000000000000000000 ) ) ;
#11 = EDGE_CURVE ( 'NONE', #232, #273, #316, .T. ) ;
#12 = AXIS2_PLACEMENT_3D ( 'NONE', #114, #209, #319 ) ;
#13 = APPROVAL_ROLE ( '' ) ;
#14 = CARTESIAN_POINT ( 'NONE',  ( 0.0000000000000000000, 0.0000000000000000000, 0.0000000000000000000 ) ) ;
#15 = DIRECTION ( 'NONE',  ( -3.491481338843133355E-15, 1.224646799147353207E-16, -1.000000000000000000 ) ) ;
#16 = DESIGN_CONTEXT ( 'detailed design', #69, 'design' ) ;
#17 = EDGE_LOOP ( 'NONE', ( #204, #80, #73, #298 ) ) ;
#18 =( LENGTH_UNIT ( ) NAMED_UNIT ( * ) SI_UNIT ( .MILLI., .METRE. ) );
#19 = CC_DESIGN_PERSON_AND_ORGANIZATION_ASSIGNMENT ( #205, #229, ( #56 ) ) ;
#20 = VERTEX_POINT ( 'NONE', #112 ) ;
#21 = DIRECTION ( 'NONE',  ( -3.491481338843133355E-15, 1.224646799147353207E-16, -1.000000000000000000 ) ) ;
#22 = DIRECTION ( 'NONE',  ( 4.275831445896958607E-31, 1.000000000000000000, 1.224646799147353207E-16 ) ) ;
#23 = CIRCLE ( 'NONE', #225, 0.9499999999999980682 ) ;
#24 = LOCAL_TIME ( 15, 22, 44.00000000000000000, #251 ) ;
#25 = CC_DESIGN_DATE_AND_TIME_ASSIGNMENT ( #283, #138, ( #257 ) ) ;
#26 = DIRECTION ( 'NONE',  ( 0.0000000000000000000, 1.000000000000000000, 0.0000000000000000000 ) ) ;
#27 = DIRECTION ( 'NONE',  ( 0.0000000000000000000, 1.000000000000000000, 0.0000000000000000000 ) ) ;
#28 = CIRCLE ( 'NONE', #51, 0.9499999999999980682 ) ;
#29 = ADVANCED_FACE ( 'NONE', ( #37 ), #35, .F. ) ;
#30 = DIRECTION ( 'NONE',  ( 4.275831445896958607E-31, 1.000000000000000000, 1.224646799147353207E-16 ) ) ;
#31 = MECHANICAL_CONTEXT ( 'NONE', #46, 'mechanical' ) ;
#32 = CYLINDRICAL_SURFACE ( 'NONE', #295, 0.9499999999999966249 ) ;
#33 = AXIS2_PLACEMENT_3D ( 'NONE', #48, #336, #199 ) ;
#34 = COORDINATED_UNIVERSAL_TIME_OFFSET ( 1, 0, .AHEAD. ) ;
#35 = PLANE ( 'NONE',  #150 ) ;
#36 = EDGE_CURVE ( 'NONE', #189, #296, #136, .T. ) ;
#37 = FACE_OUTER_BOUND ( 'NONE', #42, .T. ) ;
#38 = ORIENTED_EDGE ( 'NONE', *, *, #161, .F. ) ;
#39 = AXIS2_PLACEMENT_3D ( 'NONE', #320, #67, #162 ) ;
#40 = CC_DESIGN_SECURITY_CLASSIFICATION ( #56, ( #255 ) ) ;
#41 = PERSON_AND_ORGANIZATION ( #277, #82 ) ;
#42 = EDGE_LOOP ( 'NONE', ( #322, #171 ) ) ;
#43 = EDGE_CURVE ( 'NONE', #297, #271, #318, .T. ) ;
#44 = AXIS2_PLACEMENT_3D ( 'NONE', #198, #53, #81 ) ;
#45 = SHAPE_DEFINITION_REPRESENTATION ( #139, #128 ) ;
#46 = APPLICATION_CONTEXT ( 'configuration controlled 3d designs of mechanical parts and assemblies' ) ;
#47 = ORIENTED_EDGE ( 'NONE', *, *, #154, .T. ) ;
#48 = CARTESIAN_POINT ( 'NONE',  ( 1.992998956651442867E-15, -6.990499321345110316E-17, 0.5708175880761838794 ) ) ;
#49 = PLANE ( 'NONE',  #192 ) ;
#50 = CARTESIAN_POINT ( 'NONE',  ( 1.992998956651442867E-15, -6.990499321345110316E-17, 0.5708175880761838794 ) ) ;
#51 = AXIS2_PLACEMENT_3D ( 'NONE', #152, #176, #27 ) ;
#52 = ORIENTED_EDGE ( 'NONE', *, *, #91, .F. ) ;
#53 = DIRECTION ( 'NONE',  ( -3.491481338843133355E-15, 1.224646799147353207E-16, -1.000000000000000000 ) ) ;
#54 = ORIENTED_EDGE ( 'NONE', *, *, #308, .T. ) ;
#55 = ADVANCED_FACE ( 'NONE', ( #211 ), #140, .F. ) ;
#56 = SECURITY_CLASSIFICATION ( '', '', #200 ) ;
#57 = CC_DESIGN_APPROVAL ( #276, ( #56 ) ) ;
#58 = DIRECTION ( 'NONE',  ( 3.491481338843133355E-15, -1.224646799147353207E-16, 1.000000000000000000 ) ) ;
#59 = DIRECTION ( 'NONE',  ( -3.491481338843133355E-15, 1.224646799147353207E-16, -1.000000000000000000 ) ) ;
#60 = ORIENTED_EDGE ( 'NONE', *, *, #143, .F. ) ;
#61 = APPROVAL_ROLE ( '' ) ;
#62 = ORIENTED_EDGE ( 'NONE', *, *, #185, .F. ) ;
#63 = AXIS2_PLACEMENT_3D ( 'NONE', #259, #4, #30 ) ;
#64 = PERSON_AND_ORGANIZATION ( #277, #82 ) ;
#65 = DIRECTION ( 'NONE',  ( 0.0000000000000000000, 1.000000000000000000, 0.0000000000000000000 ) ) ;
#66 = PERSON_AND_ORGANIZATION ( #277, #82 ) ;
#67 = DIRECTION ( 'NONE',  ( -3.491481338843133355E-15, 1.224646799147353207E-16, -1.000000000000000000 ) ) ;
#68 = ORIENTED_EDGE ( 'NONE', *, *, #293, .T. ) ;
#69 = APPLICATION_CONTEXT ( 'configuration controlled 3d designs of mechanical parts and assemblies' ) ;
#70 = DIRECTION ( 'NONE',  ( 1.903218546456021928E-15, 0.8571673007021098911, 0.5150380749100583744 ) ) ;
#71 = ADVANCED_FACE ( 'NONE', ( #184 ), #32, .T. ) ;
#72 = AXIS2_PLACEMENT_3D ( 'NONE', #111, #9, #312 ) ;
#73 = ORIENTED_EDGE ( 'NONE', *, *, #36, .T. ) ;
#74 = CLOSED_SHELL ( 'NONE', ( #302, #110, #29, #71, #208, #55 ) ) ;
#75 =( GEOMETRIC_REPRESENTATION_CONTEXT ( 3 ) GLOBAL_UNCERTAINTY_ASSIGNED_CONTEXT ( ( #144 ) ) GLOBAL_UNIT_ASSIGNED_CONTEXT ( ( #18, #337, #83 ) ) REPRESENTATION_CONTEXT ( 'NONE', 'WORKASPACE' ) );
#76 = ADVANCED_FACE ( 'NONE', ( #286 ), #107, .T. ) ;
#77 = EDGE_LOOP ( 'NONE', ( #62, #123, #54 ) ) ;
#78 = VERTEX_POINT ( 'NONE', #311 ) ;
#79 = DIRECTION ( 'NONE',  ( -2.382254525458710370E-15, -0.7071067811865491270, -0.7071067811865459074 ) ) ;
#80 = ORIENTED_EDGE ( 'NONE', *, *, #305, .T. ) ;
#81 = DIRECTION ( 'NONE',  ( 0.0000000000000000000, 1.000000000000000000, 0.0000000000000000000 ) ) ;
#82 = ORGANIZATION ( 'UNSPECIFIED', 'UNSPECIFIED', '' ) ;
#83 =( NAMED_UNIT ( * ) SI_UNIT ( $, .STERADIAN. ) SOLID_ANGLE_UNIT ( ) );
#84 = CIRCLE ( 'NONE', #175, 0.9499999999999926281 ) ;
#85 = PERSON_AND_ORGANIZATION_ROLE ( 'design_owner' ) ;
#86 = DIRECTION ( 'NONE',  ( -4.275831445896958607E-31, -1.000000000000000000, -1.224646799147353207E-16 ) ) ;
#87 = LINE ( 'NONE', #92, #329 ) ;
#88 = CARTESIAN_POINT ( 'NONE',  ( 7.681258945454893382E-14, -2.694222958124176809E-15, 22.00000000000000000 ) ) ;
#89 = DIRECTION ( 'NONE',  ( 0.0000000000000000000, 1.000000000000000000, 0.0000000000000000000 ) ) ;
#90 = CIRCLE ( 'NONE', #241, 0.7499999999999983347 ) ;
#91 = EDGE_CURVE ( 'NONE', #273, #232, #335, .T. ) ;
#92 = CARTESIAN_POINT ( 'NONE',  ( 1.606081415867841091E-13, 0.7499999999999926725, 46.00000000000000000 ) ) ;
#93 = ADVANCED_FACE ( 'NONE', ( #7 ), #213, .T. ) ;
#94 = EDGE_LOOP ( 'NONE', ( #119, #168, #191, #166 ) ) ;
#95 = APPROVAL ( #288, 'UNSPECIFIED' ) ;
#96 = AXIS2_PLACEMENT_3D ( 'NONE', #88, #314, #103 ) ;
#97 = APPROVAL_DATE_TIME ( #303, #276 ) ;
#98 = APPROVAL_ROLE ( '' ) ;
#99 = DIRECTION ( 'NONE',  ( -3.491481338843133355E-15, 1.224646799147353207E-16, -1.000000000000000000 ) ) ;
#100 = LOCAL_TIME ( 15, 22, 44.00000000000000000, #231 ) ;
#101 = ORIENTED_EDGE ( 'NONE', *, *, #127, .F. ) ;
#102 = CARTESIAN_POINT ( 'NONE',  ( 1.606081415867841091E-13, -5.633375276077824704E-15, 46.00000000000000000 ) ) ;
#103 = DIRECTION ( 'NONE',  ( 0.0000000000000000000, 1.000000000000000000, 0.0000000000000000000 ) ) ;
#104 = CONICAL_SURFACE ( 'NONE', #132, 0.7499999999999983347, 0.7853981633974507215 ) ;
#105 = EDGE_CURVE ( 'NONE', #297, #78, #87, .T. ) ;
#106 = CARTESIAN_POINT ( 'NONE',  ( 7.681258945454893382E-14, 0.9499999999999925171, 22.00000000000000000 ) ) ;
#107 = CONICAL_SURFACE ( 'NONE', #12, 0.9499999999999926281, 1.029744258676649871 ) ;
#108 = CARTESIAN_POINT ( 'NONE',  ( 1.606081415867841091E-13, 0.7499999999999926725, 46.00000000000000000 ) ) ;
#109 = PERSON_AND_ORGANIZATION ( #277, #82 ) ;
#110 = ADVANCED_FACE ( 'NONE', ( #291 ), #267, .T. ) ;
#111 = CARTESIAN_POINT ( 'NONE',  ( 0.0000000000000000000, 0.0000000000000000000, 0.0000000000000000000 ) ) ;
#112 = CARTESIAN_POINT ( 'NONE',  ( 3.951913565151908840E-14, -0.9499999999999978462, 22.00000000000000000 ) ) ;
#113 = VECTOR ( 'NONE', #10, 1000.000000000000000 ) ;
#114 = CARTESIAN_POINT ( 'NONE',  ( 1.992998956651442867E-15, -6.990499321345110316E-17, 0.5708175880761838794 ) ) ;
#115 = LOCAL_TIME ( 15, 22, 44.00000000000000000, #34 ) ;
#116 = MANIFOLD_SOLID_BREP ( 'Corps-Déplacer/Copier1[1]', #74 ) ;
#117 = DIRECTION ( 'NONE',  ( 0.0000000000000000000, 1.000000000000000000, 0.0000000000000000000 ) ) ;
#118 = EDGE_CURVE ( 'NONE', #271, #297, #90, .T. ) ;
#119 = ORIENTED_EDGE ( 'NONE', *, *, #43, .T. ) ;
#120 = AXIS2_PLACEMENT_3D ( 'NONE', #156, #260, #234 ) ;
#121 = ORIENTED_EDGE ( 'NONE', *, *, #143, .T. ) ;
#122 = FACE_OUTER_BOUND ( 'NONE', #252, .T. ) ;
#123 = ORIENTED_EDGE ( 'NONE', *, *, #217, .T. ) ;
#124 = CONICAL_SURFACE ( 'NONE', #44, 0.7499999999999983347, 0.7853981633974507215 ) ;
#125 = CARTESIAN_POINT ( 'NONE',  ( 1.606999900967201794E-13, -0.7500000000000038858, 46.00000000000000000 ) ) ;
#126 = FACE_OUTER_BOUND ( 'NONE', #284, .T. ) ;
#127 = EDGE_CURVE ( 'NONE', #296, #195, #84, .T. ) ;
#128 = ADVANCED_BREP_SHAPE_REPRESENTATION ( '41370', ( #116, #228, #158 ), #75 ) ;
#129 = DIRECTION ( 'NONE',  ( 3.491481338843133355E-15, -1.224646799147353207E-16, 1.000000000000000000 ) ) ;
#130 = ORIENTED_EDGE ( 'NONE', *, *, #118, .T. ) ;
#131 = LOCAL_TIME ( 15, 22, 44.00000000000000000, #160 ) ;
#132 = AXIS2_PLACEMENT_3D ( 'NONE', #287, #212, #65 ) ;
#133 = DIRECTION ( 'NONE',  ( -3.491481338843133355E-15, 1.224646799147353207E-16, -1.000000000000000000 ) ) ;
#134 = DATE_AND_TIME ( #8, #115 ) ;
#135 = PERSON_AND_ORGANIZATION_ROLE ( 'creator' ) ;
#136 = LINE ( 'NONE', #261, #113 ) ;
#137 = PERSON_AND_ORGANIZATION_ROLE ( 'creator' ) ;
#138 = DATE_TIME_ROLE ( 'creation_date' ) ;
#139 = PRODUCT_DEFINITION_SHAPE ( 'NONE', 'NONE',  #257 ) ;
#140 = PLANE ( 'NONE',  #63 ) ;
#141 = APPROVAL_DATE_TIME ( #285, #95 ) ;
#142 = CARTESIAN_POINT ( 'NONE',  ( 0.0000000000000000000, 0.0000000000000000000, 0.0000000000000000000 ) ) ;
#143 = EDGE_CURVE ( 'NONE', #78, #273, #278, .T. ) ;
#144 = UNCERTAINTY_MEASURE_WITH_UNIT (LENGTH_MEASURE( 1.000000000000000082E-05 ), #18, 'distance_accuracy_value', 'NONE');
#145 = CLOSED_SHELL ( 'NONE', ( #93, #76, #265, #165, #190 ) ) ;
#146 = CC_DESIGN_APPROVAL ( #95, ( #257 ) ) ;
#147 = CARTESIAN_POINT ( 'NONE',  ( 7.681258945454893382E-14, 0.9499999999999925171, 22.00000000000000000 ) ) ;
#148 = VERTEX_POINT ( 'NONE', #306 ) ;
#149 = LINE ( 'NONE', #248, #214 ) ;
#150 = AXIS2_PLACEMENT_3D ( 'NONE', #187, #242, #86 ) ;
#151 = APPROVAL_PERSON_ORGANIZATION ( #41, #221, #61 ) ;
#152 = CARTESIAN_POINT ( 'NONE',  ( 1.599098453190155203E-13, -5.608882340094877990E-15, 45.79999999999999716 ) ) ;
#153 = EDGE_LOOP ( 'NONE', ( #68, #315, #101, #333 ) ) ;
#154 = EDGE_CURVE ( 'NONE', #78, #148, #23, .T. ) ;
#155 = CC_DESIGN_PERSON_AND_ORGANIZATION_ASSIGNMENT ( #66, #135, ( #257 ) ) ;
#156 = CARTESIAN_POINT ( 'NONE',  ( 7.681258945454893382E-14, -2.694222958124176809E-15, 22.00000000000000000 ) ) ;
#157 = ORIENTED_EDGE ( 'NONE', *, *, #223, .T. ) ;
#158 = AXIS2_PLACEMENT_3D ( 'NONE', #2, #164, #216 ) ;
#159 = ORIENTED_EDGE ( 'NONE', *, *, #223, .F. ) ;
#160 = COORDINATED_UNIVERSAL_TIME_OFFSET ( 1, 0, .AHEAD. ) ;
#161 = EDGE_CURVE ( 'NONE', #271, #148, #243, .T. ) ;
#162 = DIRECTION ( 'NONE',  ( 0.0000000000000000000, 1.000000000000000000, 0.0000000000000000000 ) ) ;
#163 = CC_DESIGN_PERSON_AND_ORGANIZATION_ASSIGNMENT ( #64, #137, ( #255 ) ) ;
#164 = DIRECTION ( 'NONE',  ( 0.0000000000000000000, 0.0000000000000000000, 1.000000000000000000 ) ) ;
#165 = ADVANCED_FACE ( 'NONE', ( #327 ), #194, .T. ) ;
#166 = ORIENTED_EDGE ( 'NONE', *, *, #105, .F. ) ;
#167 = CIRCLE ( 'NONE', #120, 0.9499999999999951816 ) ;
#168 = ORIENTED_EDGE ( 'NONE', *, *, #161, .T. ) ;
#169 = AXIS2_PLACEMENT_3D ( 'NONE', #142, #196, #22 ) ;
#170 = VECTOR ( 'NONE', #79, 1000.000000000000000 ) ;
#171 = ORIENTED_EDGE ( 'NONE', *, *, #11, .T. ) ;
#172 = CARTESIAN_POINT ( 'NONE',  ( 0.0000000000000000000, 0.0000000000000000000, 0.0000000000000000000 ) ) ;
#173 = CARTESIAN_POINT ( 'NONE',  ( 2.109340402570440942E-15, 0.9499999999999925171, 0.5708175880761839904 ) ) ;
#174 = LINE ( 'NONE', #256, #281 ) ;
#175 = AXIS2_PLACEMENT_3D ( 'NONE', #50, #334, #224 ) ;
#176 = DIRECTION ( 'NONE',  ( -3.491481338843133355E-15, 1.224646799147353207E-16, -1.000000000000000000 ) ) ;
#177 = COORDINATED_UNIVERSAL_TIME_OFFSET ( 1, 0, .AHEAD. ) ;
#178 = ORIENTED_EDGE ( 'NONE', *, *, #305, .F. ) ;
#179 = PRODUCT ( '41370', '41370', '', ( #31 ) ) ;
#180 = DIRECTION ( 'NONE',  ( -3.491481338843133355E-15, 1.224646799147353207E-16, -1.000000000000000000 ) ) ;
#181 = APPROVAL_DATE_TIME ( #134, #221 ) ;
#182 = FACE_OUTER_BOUND ( 'NONE', #94, .T. ) ;
#183 = PERSON_AND_ORGANIZATION ( #277, #82 ) ;
#184 = FACE_OUTER_BOUND ( 'NONE', #247, .T. ) ;
#185 = EDGE_CURVE ( 'NONE', #197, #296, #332, .T. ) ;
#186 = DIRECTION ( 'NONE',  ( -2.468850131082259033E-15, 0.7071067811865493491, -0.7071067811865456854 ) ) ;
#187 = CARTESIAN_POINT ( 'NONE',  ( 7.681258945454893382E-14, 7.123858967643749741E-33, 22.00000000000000000 ) ) ;
#188 = VECTOR ( 'NONE', #301, 1000.000000000000000 ) ;
#189 = VERTEX_POINT ( 'NONE', #147 ) ;
#190 = ADVANCED_FACE ( 'NONE', ( #126 ), #49, .T. ) ;
#191 = ORIENTED_EDGE ( 'NONE', *, *, #154, .F. ) ;
#192 = AXIS2_PLACEMENT_3D ( 'NONE', #268, #129, #249 ) ;
#193 = APPROVAL_PERSON_ORGANIZATION ( #274, #276, #98 ) ;
#194 = CYLINDRICAL_SURFACE ( 'NONE', #270, 0.9499999999999939604 ) ;
#195 = VERTEX_POINT ( 'NONE', #222 ) ;
#196 = DIRECTION ( 'NONE',  ( -3.491481338843133355E-15, 1.224646799147353207E-16, -1.000000000000000000 ) ) ;
#197 = VERTEX_POINT ( 'NONE', #226 ) ;
#198 = CARTESIAN_POINT ( 'NONE',  ( 1.606081415867841091E-13, -5.633375276077824704E-15, 46.00000000000000000 ) ) ;
#199 = DIRECTION ( 'NONE',  ( 4.054589356604738220E-31, 1.000000000000000000, 1.141265444721592386E-16 ) ) ;
#200 = SECURITY_CLASSIFICATION_LEVEL ( 'unclassified' ) ;
#201 = APPROVAL_PERSON_ORGANIZATION ( #183, #95, #13 ) ;
#202 = CARTESIAN_POINT ( 'NONE',  ( 4.062039873602096576E-31, 0.9499999999999966249, 1.163414459189981492E-16 ) ) ;
#203 = ORIENTED_EDGE ( 'NONE', *, *, #331, .F. ) ;
#204 = ORIENTED_EDGE ( 'NONE', *, *, #279, .F. ) ;
#205 = PERSON_AND_ORGANIZATION ( #277, #82 ) ;
#206 = LINE ( 'NONE', #282, #310 ) ;
#207 = CIRCLE ( 'NONE', #96, 0.9499999999999951816 ) ;
#208 = ADVANCED_FACE ( 'NONE', ( #122 ), #124, .T. ) ;
#209 = DIRECTION ( 'NONE',  ( 3.491481338843133355E-15, -1.224646799147353207E-16, 1.000000000000000000 ) ) ;
#210 = CARTESIAN_POINT ( 'NONE',  ( 1.184775588327011888E-13, -0.9499999999999979572, 22.00000000000000000 ) ) ;
#211 = FACE_OUTER_BOUND ( 'NONE', #294, .T. ) ;
#212 = DIRECTION ( 'NONE',  ( -3.491481338843133355E-15, 1.224646799147353207E-16, -1.000000000000000000 ) ) ;
#213 = CYLINDRICAL_SURFACE ( 'NONE', #72, 0.9499999999999939604 ) ;
#214 = VECTOR ( 'NONE', #21, 1000.000000000000000 ) ;
#215 = ORIENTED_EDGE ( 'NONE', *, *, #11, .F. ) ;
#216 = DIRECTION ( 'NONE',  ( 1.000000000000000000, 0.0000000000000000000, 0.0000000000000000000 ) ) ;
#217 = EDGE_CURVE ( 'NONE', #197, #195, #174, .T. ) ;
#218 = ORIENTED_EDGE ( 'NONE', *, *, #43, .F. ) ;
#219 = ORIENTED_EDGE ( 'NONE', *, *, #105, .T. ) ;
#220 = ORIENTED_EDGE ( 'NONE', *, *, #127, .T. ) ;
#221 = APPROVAL ( #292, 'UNSPECIFIED' ) ;
#222 = CARTESIAN_POINT ( 'NONE',  ( 1.992998956651442472E-15, -0.9499999999999927391, 0.5708175880761838794 ) ) ;
#223 = EDGE_CURVE ( 'NONE', #148, #78, #28, .T. ) ;
#224 = DIRECTION ( 'NONE',  ( 4.054589356604738220E-31, 1.000000000000000000, 1.141265444721592386E-16 ) ) ;
#225 = AXIS2_PLACEMENT_3D ( 'NONE', #246, #328, #304 ) ;
#226 = CARTESIAN_POINT ( 'NONE',  ( 0.0000000000000000000, 0.0000000000000000000, 0.0000000000000000000 ) ) ;
#227 = EDGE_LOOP ( 'NONE', ( #47, #244, #52, #60 ) ) ;
#228 = MANIFOLD_SOLID_BREP ( 'Corps-Déplacer/Copier1[2]', #145 ) ;
#229 = PERSON_AND_ORGANIZATION_ROLE ( 'classification_officer' ) ;
#230 = FACE_OUTER_BOUND ( 'NONE', #77, .T. ) ;
#231 = COORDINATED_UNIVERSAL_TIME_OFFSET ( 1, 0, .AHEAD. ) ;
#232 = VERTEX_POINT ( 'NONE', #210 ) ;
#233 = ORIENTED_EDGE ( 'NONE', *, *, #217, .F. ) ;
#234 = DIRECTION ( 'NONE',  ( 0.0000000000000000000, 1.000000000000000000, 0.0000000000000000000 ) ) ;
#235 = DIRECTION ( 'NONE',  ( -3.491481338843133355E-15, 1.224646799147353207E-16, -1.000000000000000000 ) ) ;
#236 = CALENDAR_DATE ( 2021, 2, 9 ) ;
#237 = CARTESIAN_POINT ( 'NONE',  ( 7.681258945454893382E-14, -2.694222958124176809E-15, 22.00000000000000000 ) ) ;
#238 = PERSON_AND_ORGANIZATION ( #277, #82 ) ;
#239 = EDGE_LOOP ( 'NONE', ( #233, #324, #220 ) ) ;
#240 = APPLICATION_PROTOCOL_DEFINITION ( 'international standard', 'config_control_design', 1994, #69 ) ;
#241 = AXIS2_PLACEMENT_3D ( 'NONE', #102, #99, #26 ) ;
#242 = DIRECTION ( 'NONE',  ( 3.491481338843133355E-15, -1.224646799147353207E-16, 1.000000000000000000 ) ) ;
#243 = LINE ( 'NONE', #125, #170 ) ;
#244 = ORIENTED_EDGE ( 'NONE', *, *, #331, .T. ) ;
#245 = DATE_TIME_ROLE ( 'classification_date' ) ;
#246 = CARTESIAN_POINT ( 'NONE',  ( 1.599098453190155203E-13, -5.608882340094877990E-15, 45.79999999999999716 ) ) ;
#247 = EDGE_LOOP ( 'NONE', ( #203, #157, #121, #215 ) ) ;
#248 = CARTESIAN_POINT ( 'NONE',  ( 1.163414459189977301E-16, -0.9499999999999966249, -1.163414459189985436E-16 ) ) ;
#249 = DIRECTION ( 'NONE',  ( -4.275831445896958607E-31, -1.000000000000000000, -1.224646799147353207E-16 ) ) ;
#250 = AXIS2_PLACEMENT_3D ( 'NONE', #237, #235, #117 ) ;
#251 = COORDINATED_UNIVERSAL_TIME_OFFSET ( 1, 0, .AHEAD. ) ;
#252 = EDGE_LOOP ( 'NONE', ( #38, #130, #219, #159 ) ) ;
#253 = DIRECTION ( 'NONE',  ( 1.798245827342159528E-15, -0.8571673007021100021, 0.5150380749100580413 ) ) ;
#254 = AXIS2_PLACEMENT_3D ( 'NONE', #263, #180, #89 ) ;
#255 = PRODUCT_DEFINITION_FORMATION_WITH_SPECIFIED_SOURCE ( 'ANY', '', #179, .NOT_KNOWN. ) ;
#256 = CARTESIAN_POINT ( 'NONE',  ( 1.992998956651442472E-15, -0.9499999999999927391, 0.5708175880761838794 ) ) ;
#257 = PRODUCT_DEFINITION ( 'UNKNOWN', '', #255, #16 ) ;
#258 = DIRECTION ( 'NONE',  ( -4.054589356604738220E-31, -1.000000000000000000, -1.141265444721592386E-16 ) ) ;
#259 = CARTESIAN_POINT ( 'NONE',  ( 1.606081415867841091E-13, 5.624099184981868869E-33, 46.00000000000000000 ) ) ;
#260 = DIRECTION ( 'NONE',  ( -3.491481338843133355E-15, 1.224646799147353207E-16, -1.000000000000000000 ) ) ;
#261 = CARTESIAN_POINT ( 'NONE',  ( 4.062039873602085190E-31, 0.9499999999999939604, 1.163414459189978040E-16 ) ) ;
#262 = VECTOR ( 'NONE', #70, 1000.000000000000114 ) ;
#263 = CARTESIAN_POINT ( 'NONE',  ( 7.681258945454893382E-14, -2.694222958124176809E-15, 22.00000000000000000 ) ) ;
#264 = CALENDAR_DATE ( 2021, 2, 9 ) ;
#265 = ADVANCED_FACE ( 'NONE', ( #230 ), #5, .T. ) ;
#266 = APPLICATION_PROTOCOL_DEFINITION ( 'international standard', 'config_control_design', 1994, #46 ) ;
#267 = CYLINDRICAL_SURFACE ( 'NONE', #169, 0.9499999999999966249 ) ;
#268 = CARTESIAN_POINT ( 'NONE',  ( 7.681258945454893382E-14, 7.123858967643749741E-33, 22.00000000000000000 ) ) ;
#269 = PRODUCT_RELATED_PRODUCT_CATEGORY ( 'detail', '', ( #179 ) ) ;
#270 = AXIS2_PLACEMENT_3D ( 'NONE', #172, #15, #275 ) ;
#271 = VERTEX_POINT ( 'NONE', #1 ) ;
#272 = CALENDAR_DATE ( 2021, 2, 9 ) ;
#273 = VERTEX_POINT ( 'NONE', #106 ) ;
#274 = PERSON_AND_ORGANIZATION ( #277, #82 ) ;
#275 = DIRECTION ( 'NONE',  ( 4.275831445896958607E-31, 1.000000000000000000, 1.224646799147353207E-16 ) ) ;
#276 = APPROVAL ( #326, 'UNSPECIFIED' ) ;
#277 = PERSON ( 'UNSPECIFIED', 'UNSPECIFIED', 'UNSPECIFIED', ('UNSPECIFIED'), ('UNSPECIFIED'), ('UNSPECIFIED') ) ;
#278 = LINE ( 'NONE', #202, #188 ) ;
#279 = EDGE_CURVE ( 'NONE', #20, #195, #206, .T. ) ;
#280 = ORIENTED_EDGE ( 'NONE', *, *, #293, .F. ) ;
#281 = VECTOR ( 'NONE', #253, 1000.000000000000000 ) ;
#282 = CARTESIAN_POINT ( 'NONE',  ( 1.163414459189974096E-16, -0.9499999999999939604, -1.163414459189982231E-16 ) ) ;
#283 = DATE_AND_TIME ( #264, #131 ) ;
#284 = EDGE_LOOP ( 'NONE', ( #280, #178 ) ) ;
#285 = DATE_AND_TIME ( #236, #289 ) ;
#286 = FACE_OUTER_BOUND ( 'NONE', #239, .T. ) ;
#287 = CARTESIAN_POINT ( 'NONE',  ( 1.606081415867841091E-13, -5.633375276077824704E-15, 46.00000000000000000 ) ) ;
#288 = APPROVAL_STATUS ( 'not_yet_approved' ) ;
#289 = LOCAL_TIME ( 15, 22, 44.00000000000000000, #177 ) ;
#290 = DIRECTION ( 'NONE',  ( 4.275831445896958607E-31, 1.000000000000000000, 1.224646799147353207E-16 ) ) ;
#291 = FACE_OUTER_BOUND ( 'NONE', #227, .T. ) ;
#292 = APPROVAL_STATUS ( 'not_yet_approved' ) ;
#293 = EDGE_CURVE ( 'NONE', #189, #20, #167, .T. ) ;
#294 = EDGE_LOOP ( 'NONE', ( #218, #330 ) ) ;
#295 = AXIS2_PLACEMENT_3D ( 'NONE', #14, #133, #290 ) ;
#296 = VERTEX_POINT ( 'NONE', #6 ) ;
#297 = VERTEX_POINT ( 'NONE', #108 ) ;
#298 = ORIENTED_EDGE ( 'NONE', *, *, #308, .F. ) ;
#299 = CC_DESIGN_APPROVAL ( #221, ( #255 ) ) ;
#300 = CALENDAR_DATE ( 2021, 2, 9 ) ;
#301 = DIRECTION ( 'NONE',  ( -3.491481338843133355E-15, 1.224646799147353207E-16, -1.000000000000000000 ) ) ;
#302 = ADVANCED_FACE ( 'NONE', ( #182 ), #104, .T. ) ;
#303 = DATE_AND_TIME ( #272, #24 ) ;
#304 = DIRECTION ( 'NONE',  ( 0.0000000000000000000, 1.000000000000000000, 0.0000000000000000000 ) ) ;
#305 = EDGE_CURVE ( 'NONE', #20, #189, #207, .T. ) ;
#306 = CARTESIAN_POINT ( 'NONE',  ( 1.184775588327010879E-13, -0.9500000000000037303, 45.79999999999999716 ) ) ;
#307 = AXIS2_PLACEMENT_3D ( 'NONE', #309, #58, #258 ) ;
#308 = EDGE_CURVE ( 'NONE', #195, #296, #323, .T. ) ;
#309 = CARTESIAN_POINT ( 'NONE',  ( 1.992998956651442867E-15, -6.990499321345110316E-17, 0.5708175880761838794 ) ) ;
#310 = VECTOR ( 'NONE', #59, 1000.000000000000000 ) ;
#311 = CARTESIAN_POINT ( 'NONE',  ( 1.599098453190155203E-13, 0.9499999999999924061, 45.79999999999999716 ) ) ;
#312 = DIRECTION ( 'NONE',  ( 4.275831445896958607E-31, 1.000000000000000000, 1.224646799147353207E-16 ) ) ;
#313 = CC_DESIGN_PERSON_AND_ORGANIZATION_ASSIGNMENT ( #109, #85, ( #179 ) ) ;
#314 = DIRECTION ( 'NONE',  ( -3.491481338843133355E-15, 1.224646799147353207E-16, -1.000000000000000000 ) ) ;
#315 = ORIENTED_EDGE ( 'NONE', *, *, #279, .T. ) ;
#316 = CIRCLE ( 'NONE', #254, 0.9499999999999951816 ) ;
#317 = PERSON_AND_ORGANIZATION_ROLE ( 'design_supplier' ) ;
#318 = CIRCLE ( 'NONE', #39, 0.7499999999999983347 ) ;
#319 = DIRECTION ( 'NONE',  ( -4.054589356604738220E-31, -1.000000000000000000, -1.141265444721592386E-16 ) ) ;
#320 = CARTESIAN_POINT ( 'NONE',  ( 1.606081415867841091E-13, -5.633375276077824704E-15, 46.00000000000000000 ) ) ;
#321 = CC_DESIGN_PERSON_AND_ORGANIZATION_ASSIGNMENT ( #238, #317, ( #255 ) ) ;
#322 = ORIENTED_EDGE ( 'NONE', *, *, #91, .T. ) ;
#323 = CIRCLE ( 'NONE', #33, 0.9499999999999926281 ) ;
#324 = ORIENTED_EDGE ( 'NONE', *, *, #185, .T. ) ;
#325 = DATE_AND_TIME ( #300, #100 ) ;
#326 = APPROVAL_STATUS ( 'not_yet_approved' ) ;
#327 = FACE_OUTER_BOUND ( 'NONE', #17, .T. ) ;
#328 = DIRECTION ( 'NONE',  ( -3.491481338843133355E-15, 1.224646799147353207E-16, -1.000000000000000000 ) ) ;
#329 = VECTOR ( 'NONE', #186, 1000.000000000000000 ) ;
#330 = ORIENTED_EDGE ( 'NONE', *, *, #118, .F. ) ;
#331 = EDGE_CURVE ( 'NONE', #148, #232, #149, .T. ) ;
#332 = LINE ( 'NONE', #173, #262 ) ;
#333 = ORIENTED_EDGE ( 'NONE', *, *, #36, .F. ) ;
#334 = DIRECTION ( 'NONE',  ( -3.491481338843133355E-15, 1.224646799147353207E-16, -1.000000000000000000 ) ) ;
#335 = CIRCLE ( 'NONE', #250, 0.9499999999999951816 ) ;
#336 = DIRECTION ( 'NONE',  ( -3.491481338843133355E-15, 1.224646799147353207E-16, -1.000000000000000000 ) ) ;
#337 =( NAMED_UNIT ( * ) PLANE_ANGLE_UNIT ( ) SI_UNIT ( $, .RADIAN. ) );
ENDSEC;
END-ISO-10303-21;
