ISO-10303-21;
HEADER;
FILE_DESCRIPTION (( 'STEP AP203' ),
    '1' );
FILE_NAME ('413659.step',
    '2023-09-27T08:31:39',
    ( '' ),
    ( '' ),
    'SwSTEP 2.0',
    'SolidWorks 2022',
    '' );
FILE_SCHEMA (( 'CONFIG_CONTROL_DESIGN' ));
ENDSEC;

DATA;
#1 = APPROVAL_DATE_TIME ( #335, #108 ) ;
#2 = CARTESIAN_POINT ( 'NONE',  ( -6.506891631910110663E-32, 0.000000000000000000, -1.863647833233472964E-17 ) ) ;
#3 = PERSON_AND_ORGANIZATION ( #304, #299 ) ;
#4 = AXIS2_PLACEMENT_3D ( 'NONE', #107, #168, #292 ) ;
#5 = DIRECTION ( 'NONE',  ( 3.491481338843133355E-15, -0.000000000000000000, 1.000000000000000000 ) ) ;
#6 = EDGE_CURVE ( 'NONE', #19, #19, #207, .T. ) ;
#7 = EDGE_LOOP ( 'NONE', ( #93 ) ) ;
#8 = DIRECTION ( 'NONE',  ( 1.000000000000000000, 0.000000000000000000, -3.844262550641123239E-15 ) ) ;
#9 = ORIENTED_EDGE ( 'NONE', *, *, #313, .F. ) ;
#10 = FACE_OUTER_BOUND ( 'NONE', #193, .T. ) ;
#11 = ORIENTED_EDGE ( 'NONE', *, *, #57, .T. ) ;
#12 = ADVANCED_FACE ( 'NONE', ( #387, #46 ), #230, .F. ) ;
#13 = AXIS2_PLACEMENT_3D ( 'NONE', #180, #212, #303 ) ;
#14 = APPROVAL_PERSON_ORGANIZATION ( #366, #108, #240 ) ;
#15 = EDGE_LOOP ( 'NONE', ( #341 ) ) ;
#16 = EDGE_LOOP ( 'NONE', ( #183 ) ) ;
#17 = DIRECTION ( 'NONE',  ( -1.000000000000000000, 0.000000000000000000, 4.625929269271493211E-15 ) ) ;
#18 = ORIENTED_EDGE ( 'NONE', *, *, #170, .F. ) ;
#19 = VERTEX_POINT ( 'NONE', #223 ) ;
#20 = AXIS2_PLACEMENT_3D ( 'NONE', #195, #260, #395 ) ;
#21 = DIRECTION ( 'NONE',  ( 3.491481338843133355E-15, -0.000000000000000000, 1.000000000000000000 ) ) ;
#22 = PRODUCT_DEFINITION_FORMATION_WITH_SPECIFIED_SOURCE ( 'ANY', '', #147, .NOT_KNOWN. ) ;
#23 = FACE_OUTER_BOUND ( 'NONE', #163, .T. ) ;
#24 = APPROVAL_ROLE ( '' ) ;
#25 = DIRECTION ( 'NONE',  ( 3.491481338843133355E-15, -0.000000000000000000, 1.000000000000000000 ) ) ;
#26 = CARTESIAN_POINT ( 'NONE',  ( 5.237222008264704766E-15, 0.000000000000000000, 1.500000000000001332 ) ) ;
#27 = CONICAL_SURFACE ( 'NONE', #34, 1.804999999999999938, 1.047197551196599852 ) ;
#28 = CC_DESIGN_APPROVAL ( #108, ( #22 ) ) ;
#29 = VERTEX_POINT ( 'NONE', #317 ) ;
#30 = DIRECTION ( 'NONE',  ( 3.491481338843133355E-15, -0.000000000000000000, 1.000000000000000000 ) ) ;
#31 = DIRECTION ( 'NONE',  ( 1.000000000000000000, 0.000000000000000000, 0.000000000000000000 ) ) ;
#32 = ADVANCED_FACE ( 'NONE', ( #197 ), #105, .F. ) ;
#33 = CALENDAR_DATE ( 2023, 27, 9 ) ;
#34 = AXIS2_PLACEMENT_3D ( 'NONE', #386, #139, #378 ) ;
#35 = EDGE_CURVE ( 'NONE', #347, #347, #171, .T. ) ;
#36 = FACE_OUTER_BOUND ( 'NONE', #69, .T. ) ;
#37 = AXIS2_PLACEMENT_3D ( 'NONE', #90, #268, #241 ) ;
#38 = DIRECTION ( 'NONE',  ( 3.491481338843133355E-15, -0.000000000000000000, 1.000000000000000000 ) ) ;
#39 = ORIENTED_EDGE ( 'NONE', *, *, #6, .T. ) ;
#40 = CC_DESIGN_PERSON_AND_ORGANIZATION_ASSIGNMENT ( #3, #208, ( #22 ) ) ;
#41 = ORIENTED_EDGE ( 'NONE', *, *, #367, .F. ) ;
#42 = AXIS2_PLACEMENT_3D ( 'NONE', #77, #344, #355 ) ;
#43 = LOCAL_TIME ( 10, 31, 39.00000000000000000, #115 ) ;
#44 = DIRECTION ( 'NONE',  ( 3.491481338843133355E-15, -0.000000000000000000, 1.000000000000000000 ) ) ;
#45 = CARTESIAN_POINT ( 'NONE',  ( 1.371987298107783193, 0.000000000000000000, 1.406249999999993117 ) ) ;
#46 = FACE_OUTER_BOUND ( 'NONE', #226, .T. ) ;
#47 = VERTEX_POINT ( 'NONE', #158 ) ;
#48 = FACE_OUTER_BOUND ( 'NONE', #222, .T. ) ;
#49 = CARTESIAN_POINT ( 'NONE',  ( 1.805000000000001492, 0.000000000000000000, 0.3437499999999905631 ) ) ;
#50 = MECHANICAL_CONTEXT ( 'NONE', #273, 'mechanical' ) ;
#51 = DIRECTION ( 'NONE',  ( 3.491481338843133355E-15, -0.000000000000000000, 1.000000000000000000 ) ) ;
#52 = DIRECTION ( 'NONE',  ( 3.491481338843133355E-15, -0.000000000000000000, 1.000000000000000000 ) ) ;
#53 = CARTESIAN_POINT ( 'NONE',  ( 2.945937379648884302E-15, 0.000000000000000000, 0.8437499999999973355 ) ) ;
#54 = AXIS2_PLACEMENT_3D ( 'NONE', #142, #167, #356 ) ;
#55 = AXIS2_PLACEMENT_3D ( 'NONE', #103, #249, #134 ) ;
#56 = DIRECTION ( 'NONE',  ( 0.000000000000000000, 0.000000000000000000, 1.000000000000000000 ) ) ;
#57 = EDGE_CURVE ( 'NONE', #47, #47, #80, .T. ) ;
#58 = PERSON_AND_ORGANIZATION ( #304, #299 ) ;
#59 = APPROVAL_STATUS ( 'not_yet_approved' ) ;
#60 = AXIS2_PLACEMENT_3D ( 'NONE', #97, #338, #150 ) ;
#61 = DIRECTION ( 'NONE',  ( 3.491481338843133355E-15, -0.000000000000000000, 1.000000000000000000 ) ) ;
#62 = ADVANCED_FACE ( 'NONE', ( #357, #315 ), #307, .T. ) ;
#63 = ORIENTED_EDGE ( 'NONE', *, *, #123, .T. ) ;
#64 = FACE_OUTER_BOUND ( 'NONE', #214, .T. ) ;
#65 = CONICAL_SURFACE ( 'NONE', #55, 1.805000000000000160, 1.047197551196600296 ) ;
#66 = PRODUCT_RELATED_PRODUCT_CATEGORY ( 'detail', '', ( #147 ) ) ;
#67 = EDGE_LOOP ( 'NONE', ( #346 ) ) ;
#68 = VERTEX_POINT ( 'NONE', #155 ) ;
#69 = EDGE_LOOP ( 'NONE', ( #18 ) ) ;
#70 = VERTEX_POINT ( 'NONE', #49 ) ;
#71 = EDGE_LOOP ( 'NONE', ( #133 ) ) ;
#72 = CARTESIAN_POINT ( 'NONE',  ( 1.210000000000005071, 0.000000000000000000, 1.499999999999997113 ) ) ;
#73 = EDGE_LOOP ( 'NONE', ( #279 ) ) ;
#74 = CC_DESIGN_PERSON_AND_ORGANIZATION_ASSIGNMENT ( #267, #178, ( #350 ) ) ;
#75 = FACE_OUTER_BOUND ( 'NONE', #309, .T. ) ;
#76 = DIRECTION ( 'NONE',  ( 1.000000000000000000, 0.000000000000000000, -3.469446951953614189E-15 ) ) ;
#77 = CARTESIAN_POINT ( 'NONE',  ( 0.000000000000000000, 0.000000000000000000, 0.000000000000000000 ) ) ;
#78 = DIRECTION ( 'NONE',  ( 1.000000000000000000, 0.000000000000000000, -3.491481338843133355E-15 ) ) ;
#79 = PRODUCT_DEFINITION_SHAPE ( 'NONE', 'NONE',  #364 ) ;
#80 = CIRCLE ( 'NONE', #143, 2.399999999999995914 ) ;
#81 = CARTESIAN_POINT ( 'NONE',  ( 5.118099314545375245E-14, 0.000000000000000000, 14.65881904510251488 ) ) ;
#82 = AXIS2_PLACEMENT_3D ( 'NONE', #194, #382, #225 ) ;
#83 = COORDINATED_UNIVERSAL_TIME_OFFSET ( 1, 0, .AHEAD. ) ;
#84 = ORIENTED_EDGE ( 'NONE', *, *, #318, .T. ) ;
#85 = EDGE_LOOP ( 'NONE', ( #337 ) ) ;
#86 = CONICAL_SURFACE ( 'NONE', #339, 1.209607534898196057, 1.047197551196603627 ) ;
#87 = CALENDAR_DATE ( 2023, 27, 9 ) ;
#88 = CYLINDRICAL_SURFACE ( 'NONE', #320, 1.805000000000000160 ) ;
#89 = ADVANCED_FACE ( 'NONE', ( #48, #322 ), #184, .F. ) ;
#90 = CARTESIAN_POINT ( 'NONE',  ( 1.990144363140586139E-13, 0.000000000000000000, 57.00000000000000000 ) ) ;
#91 = DATE_AND_TIME ( #87, #229 ) ;
#92 = DIRECTION ( 'NONE',  ( 1.000000000000000000, 0.000000000000000000, -5.734623061080357167E-15 ) ) ;
#93 = ORIENTED_EDGE ( 'NONE', *, *, #170, .T. ) ;
#94 = EDGE_CURVE ( 'NONE', #196, #196, #176, .T. ) ;
#95 = DIRECTION ( 'NONE',  ( 3.491481338843133355E-15, -0.000000000000000000, 1.000000000000000000 ) ) ;
#96 = CIRCLE ( 'NONE', #228, 1.371987298107778086 ) ;
#97 = CARTESIAN_POINT ( 'NONE',  ( 1.990144363140586139E-13, 0.000000000000000000, 57.00000000000000000 ) ) ;
#98 = EDGE_LOOP ( 'NONE', ( #127 ) ) ;
#99 = FACE_OUTER_BOUND ( 'NONE', #363, .T. ) ;
#100 = ORIENTED_EDGE ( 'NONE', *, *, #238, .F. ) ;
#101 = FACE_BOUND ( 'NONE', #15, .T. ) ;
#102 = EDGE_LOOP ( 'NONE', ( #100 ) ) ;
#103 = CARTESIAN_POINT ( 'NONE',  ( 1.418414293905012079E-15, 0.000000000000000000, 0.4062499999999968914 ) ) ;
#104 = AXIS2_PLACEMENT_3D ( 'NONE', #169, #137, #78 ) ;
#105 = PLANE ( 'NONE',  #203 ) ;
#106 = FACE_OUTER_BOUND ( 'NONE', #152, .T. ) ;
#107 = CARTESIAN_POINT ( 'NONE',  ( 1.418414293905012079E-15, 0.000000000000000000, 0.4062499999999968914 ) ) ;
#108 = APPROVAL ( #301, 'UNSPECIFIED' ) ;
#109 = DIRECTION ( 'NONE',  ( -3.491481338843133355E-15, 0.000000000000000000, -1.000000000000000000 ) ) ;
#110 = AXIS2_PLACEMENT_3D ( 'NONE', #129, #159, #388 ) ;
#111 = CARTESIAN_POINT ( 'NONE',  ( 1.990144363140586139E-13, 0.000000000000000000, 57.00000000000000000 ) ) ;
#112 = EDGE_LOOP ( 'NONE', ( #11 ) ) ;
#113 =( LENGTH_UNIT ( ) NAMED_UNIT ( * ) SI_UNIT ( .MILLI., .METRE. ) );
#114 = AXIS2_PLACEMENT_3D ( 'NONE', #81, #21, #319 ) ;
#115 = COORDINATED_UNIVERSAL_TIME_OFFSET ( 1, 0, .AHEAD. ) ;
#116 = DATE_TIME_ROLE ( 'classification_date' ) ;
#117 = CC_DESIGN_PERSON_AND_ORGANIZATION_ASSIGNMENT ( #166, #141, ( #147 ) ) ;
#118 = DIRECTION ( 'NONE',  ( 1.000000000000000000, 0.000000000000000000, -3.483862936518518231E-15 ) ) ;
#119 = FACE_OUTER_BOUND ( 'NONE', #126, .T. ) ;
#120 = AXIS2_PLACEMENT_3D ( 'NONE', #262, #374, #215 ) ;
#121 = PERSON_AND_ORGANIZATION ( #304, #299 ) ;
#122 = DIRECTION ( 'NONE',  ( 1.000000000000000000, 0.000000000000000000, -3.477065396680857837E-15 ) ) ;
#123 = EDGE_CURVE ( 'NONE', #161, #161, #269, .T. ) ;
#124 = ORIENTED_EDGE ( 'NONE', *, *, #318, .F. ) ;
#125 = CYLINDRICAL_SURFACE ( 'NONE', #37, 1.805000000000000160 ) ;
#126 = EDGE_LOOP ( 'NONE', ( #220 ) ) ;
#127 = ORIENTED_EDGE ( 'NONE', *, *, #162, .T. ) ;
#128 = CIRCLE ( 'NONE', #383, 1.371987298107778086 ) ;
#129 = CARTESIAN_POINT ( 'NONE',  ( 1.969195475107527212E-13, 0.000000000000000000, 56.39999999999999858 ) ) ;
#130 = ORIENTED_EDGE ( 'NONE', *, *, #6, .F. ) ;
#131 = VERTEX_POINT ( 'NONE', #287 ) ;
#132 = ADVANCED_FACE ( 'NONE', ( #353, #391 ), #251, .T. ) ;
#133 = ORIENTED_EDGE ( 'NONE', *, *, #138, .F. ) ;
#134 = DIRECTION ( 'NONE',  ( -1.000000000000000000, 0.000000000000000000, 3.483862936518518231E-15 ) ) ;
#135 = CARTESIAN_POINT ( 'NONE',  ( 5.237222008264700033E-15, 1.371987298107777864, 1.500000000000000000 ) ) ;
#136 = CARTESIAN_POINT ( 'NONE',  ( 1.805000000000001714, 0.000000000000000000, 0.4062499999999906186 ) ) ;
#137 = DIRECTION ( 'NONE',  ( 3.491481338843133355E-15, -0.000000000000000000, 1.000000000000000000 ) ) ;
#138 = EDGE_CURVE ( 'NONE', #342, #342, #327, .T. ) ;
#139 = DIRECTION ( 'NONE',  ( -3.491481338843133355E-15, 0.000000000000000000, -1.000000000000000000 ) ) ;
#140 = DIRECTION ( 'NONE',  ( -1.000000000000000000, 0.000000000000000000, 3.491481338843133355E-15 ) ) ;
#141 = PERSON_AND_ORGANIZATION_ROLE ( 'design_owner' ) ;
#142 = CARTESIAN_POINT ( 'NONE',  ( 5.237222008264704766E-15, 0.000000000000000000, 1.500000000000001332 ) ) ;
#143 = AXIS2_PLACEMENT_3D ( 'NONE', #224, #52, #390 ) ;
#144 = DIRECTION ( 'NONE',  ( 1.000000000000000000, 0.000000000000000000, -5.057549667899430226E-15 ) ) ;
#145 = CC_DESIGN_PERSON_AND_ORGANIZATION_ASSIGNMENT ( #58, #329, ( #22 ) ) ;
#146 = FACE_OUTER_BOUND ( 'NONE', #73, .T. ) ;
#147 = PRODUCT ( '413659', '413659', '', ( #50 ) ) ;
#148 = CIRCLE ( 'NONE', #110, 2.999999999999995115 ) ;
#149 = PERSON_AND_ORGANIZATION_ROLE ( 'creator' ) ;
#150 = DIRECTION ( 'NONE',  ( 1.000000000000000000, 0.000000000000000000, -5.057549667899430226E-15 ) ) ;
#151 = FACE_OUTER_BOUND ( 'NONE', #71, .T. ) ;
#152 = EDGE_LOOP ( 'NONE', ( #124 ) ) ;
#153 = CALENDAR_DATE ( 2023, 27, 9 ) ;
#154 = DIRECTION ( 'NONE',  ( 3.491481338843133355E-15, -0.000000000000000000, 1.000000000000000000 ) ) ;
#155 = CARTESIAN_POINT ( 'NONE',  ( 1.244074173710979725, 0.000000000000000000, 14.65881904510250955 ) ) ;
#156 = ADVANCED_FACE ( 'NONE', ( #276, #332 ), #125, .T. ) ;
#157 = CLOSED_SHELL ( 'NONE', ( #282, #256, #156, #385, #205, #245, #306, #330, #132, #12, #182, #89, #62, #394, #345, #32 ) ) ;
#158 = CARTESIAN_POINT ( 'NONE',  ( 2.400000000000194866, 0.000000000000000000, 56.99999999999999289 ) ) ;
#159 = DIRECTION ( 'NONE',  ( 3.491481338843133355E-15, -0.000000000000000000, 1.000000000000000000 ) ) ;
#160 = ORIENTED_EDGE ( 'NONE', *, *, #367, .T. ) ;
#161 = VERTEX_POINT ( 'NONE', #316 ) ;
#162 = EDGE_CURVE ( 'NONE', #70, #70, #365, .T. ) ;
#163 = EDGE_LOOP ( 'NONE', ( #312 ) ) ;
#164 = VERTEX_POINT ( 'NONE', #188 ) ;
#165 = AXIS2_PLACEMENT_3D ( 'NONE', #185, #38, #92 ) ;
#166 = PERSON_AND_ORGANIZATION ( #304, #299 ) ;
#167 = DIRECTION ( 'NONE',  ( 3.491481338843133355E-15, -0.000000000000000000, 1.000000000000000000 ) ) ;
#168 = DIRECTION ( 'NONE',  ( 3.491481338843133355E-15, -0.000000000000000000, 1.000000000000000000 ) ) ;
#169 = CARTESIAN_POINT ( 'NONE',  ( 5.027733127934112032E-14, 0.000000000000000000, 14.40000000000000036 ) ) ;
#170 = EDGE_CURVE ( 'NONE', #284, #284, #128, .T. ) ;
#171 = CIRCLE ( 'NONE', #4, 1.805000000000000160 ) ;
#172 = CC_DESIGN_SECURITY_CLASSIFICATION ( #350, ( #22 ) ) ;
#173 = CYLINDRICAL_SURFACE ( 'NONE', #165, 1.209999999999999298 ) ;
#174 = EDGE_CURVE ( 'NONE', #164, #164, #216, .T. ) ;
#175 = SECURITY_CLASSIFICATION_LEVEL ( 'unclassified' ) ;
#176 = CIRCLE ( 'NONE', #54, 1.209999999999999964 ) ;
#177 = AXIS2_PLACEMENT_3D ( 'NONE', #293, #56, #31 ) ;
#178 = PERSON_AND_ORGANIZATION_ROLE ( 'classification_officer' ) ;
#179 = CARTESIAN_POINT ( 'NONE',  ( 4.909895632748147998E-15, 0.000000000000000000, 1.406249999999997780 ) ) ;
#180 = CARTESIAN_POINT ( 'NONE',  ( 2.291284628615796404E-15, 0.000000000000000000, 0.6562499999999971134 ) ) ;
#181 = DATE_AND_TIME ( #33, #233 ) ;
#182 = ADVANCED_FACE ( 'NONE', ( #151, #373 ), #173, .T. ) ;
#183 = ORIENTED_EDGE ( 'NONE', *, *, #35, .F. ) ;
#184 = TOROIDAL_SURFACE ( 'NONE', #104, 2.209999999999998632, 1.000000000000000000 ) ;
#185 = CARTESIAN_POINT ( 'NONE',  ( 1.990144363140586139E-13, 0.000000000000000000, 57.00000000000000000 ) ) ;
#186 = CARTESIAN_POINT ( 'NONE',  ( 1.210000000000049036, 0.000000000000000000, 14.40000000000000036 ) ) ;
#187 = EDGE_LOOP ( 'NONE', ( #244 ) ) ;
#188 = CARTESIAN_POINT ( 'NONE',  ( 1.805000000000004157, 0.000000000000000000, 1.093749999999991118 ) ) ;
#189 = AXIS2_PLACEMENT_3D ( 'NONE', #243, #95, #118 ) ;
#190 =( GEOMETRIC_REPRESENTATION_CONTEXT ( 3 ) GLOBAL_UNCERTAINTY_ASSIGNED_CONTEXT ( ( #201 ) ) GLOBAL_UNIT_ASSIGNED_CONTEXT ( ( #113, #296, #321 ) ) REPRESENTATION_CONTEXT ( 'NONE', 'WORKASPACE' ) );
#191 = CARTESIAN_POINT ( 'NONE',  ( 1.371987298107781195, 0.000000000000000000, 0.8437499999999925615 ) ) ;
#192 = VERTEX_POINT ( 'NONE', #45 ) ;
#193 = EDGE_LOOP ( 'NONE', ( #219 ) ) ;
#194 = CARTESIAN_POINT ( 'NONE',  ( 1.990144363140586139E-13, 0.000000000000000000, 57.00000000000000000 ) ) ;
#195 = CARTESIAN_POINT ( 'NONE',  ( 5.027733127934113294E-14, 0.000000000000000000, 14.40000000000000391 ) ) ;
#196 = VERTEX_POINT ( 'NONE', #72 ) ;
#197 = FACE_OUTER_BOUND ( 'NONE', #112, .T. ) ;
#198 = ORIENTED_EDGE ( 'NONE', *, *, #300, .T. ) ;
#199 = MANIFOLD_SOLID_BREP ( 'Corps-Déplacer/Copier1', #157 ) ;
#200 = EDGE_LOOP ( 'NONE', ( #202 ) ) ;
#201 = UNCERTAINTY_MEASURE_WITH_UNIT (LENGTH_MEASURE( 1.000000000000000082E-05 ), #113, 'distance_accuracy_value', 'NONE');
#202 = ORIENTED_EDGE ( 'NONE', *, *, #313, .T. ) ;
#203 = AXIS2_PLACEMENT_3D ( 'NONE', #323, #109, #140 ) ;
#204 = DATE_AND_TIME ( #206, #359 ) ;
#205 = ADVANCED_FACE ( 'NONE', ( #36, #119 ), #209, .T. ) ;
#206 = CALENDAR_DATE ( 2023, 27, 9 ) ;
#207 = CIRCLE ( 'NONE', #247, 3.000000000000000000 ) ;
#208 = PERSON_AND_ORGANIZATION_ROLE ( 'creator' ) ;
#209 = CYLINDRICAL_SURFACE ( 'NONE', #60, 1.371987298107777864 ) ;
#210 = APPROVAL ( #257, 'UNSPECIFIED' ) ;
#211 = APPROVAL_ROLE ( '' ) ;
#212 = DIRECTION ( 'NONE',  ( 3.491481338843133355E-15, -0.000000000000000000, 1.000000000000000000 ) ) ;
#213 = ADVANCED_BREP_SHAPE_REPRESENTATION ( '413659', ( #199, #177 ), #190 ) ;
#214 = EDGE_LOOP ( 'NONE', ( #41 ) ) ;
#215 = DIRECTION ( 'NONE',  ( 1.000000000000000000, 0.000000000000000000, -3.483862936518518231E-15 ) ) ;
#216 = CIRCLE ( 'NONE', #189, 1.805000000000000160 ) ;
#217 = DIRECTION ( 'NONE',  ( -3.491481338843133355E-15, 0.000000000000000000, -1.000000000000000000 ) ) ;
#218 = CC_DESIGN_DATE_AND_TIME_ASSIGNMENT ( #91, #116, ( #350 ) ) ;
#219 = ORIENTED_EDGE ( 'NONE', *, *, #326, .F. ) ;
#220 = ORIENTED_EDGE ( 'NONE', *, *, #238, .T. ) ;
#221 = FACE_BOUND ( 'NONE', #343, .T. ) ;
#222 = EDGE_LOOP ( 'NONE', ( #377 ) ) ;
#223 = CARTESIAN_POINT ( 'NONE',  ( 3.000000000000074163, 0.000000000000000000, 21.21202344313585542 ) ) ;
#224 = CARTESIAN_POINT ( 'NONE',  ( 1.990144363140586139E-13, 0.000000000000000000, 57.00000000000000000 ) ) ;
#225 = DIRECTION ( 'NONE',  ( 1.000000000000000000, 0.000000000000000000, -4.625929269271490055E-15 ) ) ;
#226 = EDGE_LOOP ( 'NONE', ( #63 ) ) ;
#227 = CARTESIAN_POINT ( 'NONE',  ( 7.406138401081193087E-14, 0.000000000000000000, 21.21202344313586607 ) ) ;
#228 = AXIS2_PLACEMENT_3D ( 'NONE', #179, #44, #314 ) ;
#229 = LOCAL_TIME ( 10, 31, 39.00000000000000000, #265 ) ;
#230 = PLANE ( 'NONE',  #348 ) ;
#231 = CALENDAR_DATE ( 2023, 27, 9 ) ;
#232 = APPLICATION_PROTOCOL_DEFINITION ( 'international standard', 'config_control_design', 1994, #273 ) ;
#233 = LOCAL_TIME ( 10, 31, 39.00000000000000000, #271 ) ;
#234 = APPROVAL_DATE_TIME ( #362, #210 ) ;
#235 = CARTESIAN_POINT ( 'NONE',  ( 0.000000000000000000, 0.000000000000000000, 0.000000000000000000 ) ) ;
#236 = DATE_TIME_ROLE ( 'creation_date' ) ;
#237 = DIRECTION ( 'NONE',  ( 1.000000000000000000, 0.000000000000000000, -3.491481338843133355E-15 ) ) ;
#238 = EDGE_CURVE ( 'NONE', #131, #131, #298, .T. ) ;
#239 = CONICAL_SURFACE ( 'NONE', #392, 2.999999999999995115, 0.7853981633974450594 ) ;
#240 = APPROVAL_ROLE ( '' ) ;
#241 = DIRECTION ( 'NONE',  ( 1.000000000000000000, 0.000000000000000000, -3.844262550641123239E-15 ) ) ;
#242 = EDGE_LOOP ( 'NONE', ( #130 ) ) ;
#243 = CARTESIAN_POINT ( 'NONE',  ( 3.818807714359668824E-15, 0.000000000000000000, 1.093749999999997558 ) ) ;
#244 = ORIENTED_EDGE ( 'NONE', *, *, #174, .F. ) ;
#245 = ADVANCED_FACE ( 'NONE', ( #334, #325 ), #311, .T. ) ;
#246 = DIRECTION ( 'NONE',  ( 1.000000000000000000, 0.000000000000000000, -3.491481338843132961E-15 ) ) ;
#247 = AXIS2_PLACEMENT_3D ( 'NONE', #227, #51, #76 ) ;
#248 = DIRECTION ( 'NONE',  ( 1.000000000000000000, 0.000000000000000000, -3.483862936518518626E-15 ) ) ;
#249 = DIRECTION ( 'NONE',  ( -3.491481338843133355E-15, 0.000000000000000000, -1.000000000000000000 ) ) ;
#250 = CARTESIAN_POINT ( 'NONE',  ( 1.969195475107527212E-13, 0.000000000000000000, 56.39999999999999858 ) ) ;
#251 = CYLINDRICAL_SURFACE ( 'NONE', #278, 1.371987298107777864 ) ;
#252 = AXIS2_PLACEMENT_3D ( 'NONE', #295, #30, #122 ) ;
#253 = FACE_OUTER_BOUND ( 'NONE', #310, .T. ) ;
#254 = CYLINDRICAL_SURFACE ( 'NONE', #82, 2.999999999999997335 ) ;
#255 = DIRECTION ( 'NONE',  ( -1.000000000000000000, 0.000000000000000000, 3.491481338843133355E-15 ) ) ;
#256 = ADVANCED_FACE ( 'NONE', ( #146, #375 ), #86, .T. ) ;
#257 = APPROVAL_STATUS ( 'not_yet_approved' ) ;
#258 = DIRECTION ( 'NONE',  ( 1.000000000000000000, 0.000000000000000000, -3.477065396680858231E-15 ) ) ;
#259 = AXIS2_PLACEMENT_3D ( 'NONE', #26, #25, #258 ) ;
#260 = DIRECTION ( 'NONE',  ( 3.491481338843133355E-15, -0.000000000000000000, 1.000000000000000000 ) ) ;
#261 = CARTESIAN_POINT ( 'NONE',  ( 1.805000000000004157, 0.000000000000000000, 1.156249999999991340 ) ) ;
#262 = CARTESIAN_POINT ( 'NONE',  ( 1.200196710227316047E-15, 0.000000000000000000, 0.3437499999999968359 ) ) ;
#263 = VERTEX_POINT ( 'NONE', #261 ) ;
#264 = AXIS2_PLACEMENT_3D ( 'NONE', #2, #5, #237 ) ;
#265 = COORDINATED_UNIVERSAL_TIME_OFFSET ( 1, 0, .AHEAD. ) ;
#266 = PLANE ( 'NONE',  #264 ) ;
#267 = PERSON_AND_ORGANIZATION ( #304, #299 ) ;
#268 = DIRECTION ( 'NONE',  ( 3.491481338843133355E-15, -0.000000000000000000, 1.000000000000000000 ) ) ;
#269 = CIRCLE ( 'NONE', #259, 1.371987298107777864 ) ;
#270 = CC_DESIGN_APPROVAL ( #274, ( #350 ) ) ;
#271 = COORDINATED_UNIVERSAL_TIME_OFFSET ( 1, 0, .AHEAD. ) ;
#272 = DIRECTION ( 'NONE',  ( 1.000000000000000000, 0.000000000000000000, -4.183167320648563749E-15 ) ) ;
#273 = APPLICATION_CONTEXT ( 'configuration controlled 3d designs of mechanical parts and assemblies' ) ;
#274 = APPROVAL ( #59, 'UNSPECIFIED' ) ;
#275 = ORIENTED_EDGE ( 'NONE', *, *, #138, .T. ) ;
#276 = FACE_OUTER_BOUND ( 'NONE', #16, .T. ) ;
#277 = ORIENTED_EDGE ( 'NONE', *, *, #174, .T. ) ;
#278 = AXIS2_PLACEMENT_3D ( 'NONE', #111, #361, #144 ) ;
#279 = ORIENTED_EDGE ( 'NONE', *, *, #162, .F. ) ;
#280 = APPLICATION_CONTEXT ( 'configuration controlled 3d designs of mechanical parts and assemblies' ) ;
#281 = DIRECTION ( 'NONE',  ( 3.491481338843133355E-15, -0.000000000000000000, 1.000000000000000000 ) ) ;
#282 = ADVANCED_FACE ( 'NONE', ( #64 ), #266, .F. ) ;
#283 = ORIENTED_EDGE ( 'NONE', *, *, #94, .T. ) ;
#284 = VERTEX_POINT ( 'NONE', #191 ) ;
#285 = EDGE_LOOP ( 'NONE', ( #275 ) ) ;
#286 = CIRCLE ( 'NONE', #358, 1.244074173710928655 ) ;
#287 = CARTESIAN_POINT ( 'NONE',  ( 1.371987298107780306, 0.000000000000000000, 0.6562499999999923395 ) ) ;
#288 = PERSON_AND_ORGANIZATION ( #304, #299 ) ;
#289 = DIRECTION ( 'NONE',  ( -3.491481338843133355E-15, 0.000000000000000000, -1.000000000000000000 ) ) ;
#290 = CC_DESIGN_PERSON_AND_ORGANIZATION_ASSIGNMENT ( #368, #149, ( #364 ) ) ;
#291 = VERTEX_POINT ( 'NONE', #324 ) ;
#292 = DIRECTION ( 'NONE',  ( 1.000000000000000000, 0.000000000000000000, -3.483862936518518231E-15 ) ) ;
#293 = CARTESIAN_POINT ( 'NONE',  ( 0.000000000000000000, 0.000000000000000000, 0.000000000000000000 ) ) ;
#294 = EDGE_LOOP ( 'NONE', ( #283 ) ) ;
#295 = CARTESIAN_POINT ( 'NONE',  ( 2.945937379648884302E-15, 0.000000000000000000, 0.8437499999999973355 ) ) ;
#296 =( NAMED_UNIT ( * ) PLANE_ANGLE_UNIT ( ) SI_UNIT ( $, .RADIAN. ) );
#297 = SHAPE_DEFINITION_REPRESENTATION ( #79, #213 ) ;
#298 = CIRCLE ( 'NONE', #13, 1.371987298107777864 ) ;
#299 = ORGANIZATION ( 'UNSPECIFIED', 'UNSPECIFIED', '' ) ;
#300 = EDGE_CURVE ( 'NONE', #68, #68, #286, .T. ) ;
#301 = APPROVAL_STATUS ( 'not_yet_approved' ) ;
#302 = DIRECTION ( 'NONE',  ( 1.000000000000000000, 0.000000000000000000, -3.477065396680857837E-15 ) ) ;
#303 = DIRECTION ( 'NONE',  ( 1.000000000000000000, 0.000000000000000000, -3.477065396680858231E-15 ) ) ;
#304 = PERSON ( 'UNSPECIFIED', 'UNSPECIFIED', 'UNSPECIFIED', ('UNSPECIFIED'), ('UNSPECIFIED'), ('UNSPECIFIED') ) ;
#305 = CARTESIAN_POINT ( 'NONE',  ( 1.990144363140586139E-13, 0.000000000000000000, 57.00000000000000000 ) ) ;
#306 = ADVANCED_FACE ( 'NONE', ( #10, #369 ), #88, .T. ) ;
#307 = CONICAL_SURFACE ( 'NONE', #114, 1.244074173710928655, 0.2617993877991428575 ) ;
#308 = DIRECTION ( 'NONE',  ( 3.491481338843133355E-15, -0.000000000000000000, 1.000000000000000000 ) ) ;
#309 = EDGE_LOOP ( 'NONE', ( #39 ) ) ;
#310 = EDGE_LOOP ( 'NONE', ( #381 ) ) ;
#311 = CONICAL_SURFACE ( 'NONE', #252, 1.371987298107778086, 1.047197551196600074 ) ;
#312 = ORIENTED_EDGE ( 'NONE', *, *, #326, .T. ) ;
#313 = EDGE_CURVE ( 'NONE', #192, #192, #96, .T. ) ;
#314 = DIRECTION ( 'NONE',  ( 1.000000000000000000, 0.000000000000000000, -3.477065396680857837E-15 ) ) ;
#315 = FACE_BOUND ( 'NONE', #384, .T. ) ;
#316 = CARTESIAN_POINT ( 'NONE',  ( 1.371987298107783193, 0.000000000000000000, 1.499999999999996669 ) ) ;
#317 = CARTESIAN_POINT ( 'NONE',  ( 1.209607534898196057, 0.000000000000000000, -4.223322135421095306E-15 ) ) ;
#318 = EDGE_CURVE ( 'NONE', #291, #291, #148, .T. ) ;
#319 = DIRECTION ( 'NONE',  ( 1.000000000000000000, 0.000000000000000000, -4.183167320648563749E-15 ) ) ;
#320 = AXIS2_PLACEMENT_3D ( 'NONE', #305, #61, #8 ) ;
#321 =( NAMED_UNIT ( * ) SI_UNIT ( $, .STERADIAN. ) SOLID_ANGLE_UNIT ( ) );
#322 = FACE_OUTER_BOUND ( 'NONE', #285, .T. ) ;
#323 = CARTESIAN_POINT ( 'NONE',  ( 1.990144363140586139E-13, 2.399999999999995914, 57.00000000000000000 ) ) ;
#324 = CARTESIAN_POINT ( 'NONE',  ( 3.000000000000192291, 0.000000000000000000, 56.39999999999998437 ) ) ;
#325 = FACE_BOUND ( 'NONE', #7, .T. ) ;
#326 = EDGE_CURVE ( 'NONE', #263, #263, #370, .T. ) ;
#327 = CIRCLE ( 'NONE', #20, 1.209999999999998632 ) ;
#328 = APPROVAL_PERSON_ORGANIZATION ( #288, #210, #24 ) ;
#329 = PERSON_AND_ORGANIZATION_ROLE ( 'design_supplier' ) ;
#330 = ADVANCED_FACE ( 'NONE', ( #221, #23 ), #27, .T. ) ;
#331 = CIRCLE ( 'NONE', #42, 1.209607534898196057 ) ;
#332 = FACE_OUTER_BOUND ( 'NONE', #98, .T. ) ;
#333 = APPROVAL_DATE_TIME ( #181, #274 ) ;
#334 = FACE_OUTER_BOUND ( 'NONE', #187, .T. ) ;
#335 = DATE_AND_TIME ( #153, #43 ) ;
#336 = CARTESIAN_POINT ( 'NONE',  ( 5.118099314545375245E-14, 0.000000000000000000, 14.65881904510251488 ) ) ;
#337 = ORIENTED_EDGE ( 'NONE', *, *, #123, .F. ) ;
#338 = DIRECTION ( 'NONE',  ( 3.491481338843133355E-15, -0.000000000000000000, 1.000000000000000000 ) ) ;
#339 = AXIS2_PLACEMENT_3D ( 'NONE', #235, #371, #246 ) ;
#340 = APPROVAL_PERSON_ORGANIZATION ( #121, #274, #211 ) ;
#341 = ORIENTED_EDGE ( 'NONE', *, *, #57, .F. ) ;
#342 = VERTEX_POINT ( 'NONE', #186 ) ;
#343 = EDGE_LOOP ( 'NONE', ( #9 ) ) ;
#344 = DIRECTION ( 'NONE',  ( 3.491481338843133355E-15, -0.000000000000000000, 1.000000000000000000 ) ) ;
#345 = ADVANCED_FACE ( 'NONE', ( #101, #99 ), #239, .T. ) ;
#346 = ORIENTED_EDGE ( 'NONE', *, *, #94, .F. ) ;
#347 = VERTEX_POINT ( 'NONE', #136 ) ;
#348 = AXIS2_PLACEMENT_3D ( 'NONE', #135, #289, #255 ) ;
#349 = EDGE_LOOP ( 'NONE', ( #160 ) ) ;
#350 = SECURITY_CLASSIFICATION ( '', '', #175 ) ;
#351 = FACE_BOUND ( 'NONE', #102, .T. ) ;
#352 = DESIGN_CONTEXT ( 'detailed design', #280, 'design' ) ;
#353 = FACE_OUTER_BOUND ( 'NONE', #85, .T. ) ;
#354 = CC_DESIGN_DATE_AND_TIME_ASSIGNMENT ( #204, #236, ( #364 ) ) ;
#355 = DIRECTION ( 'NONE',  ( 1.000000000000000000, 0.000000000000000000, -3.491481338843132961E-15 ) ) ;
#356 = DIRECTION ( 'NONE',  ( 1.000000000000000000, 0.000000000000000000, -3.404932442516460219E-15 ) ) ;
#357 = FACE_OUTER_BOUND ( 'NONE', #242, .T. ) ;
#358 = AXIS2_PLACEMENT_3D ( 'NONE', #336, #308, #272 ) ;
#359 = LOCAL_TIME ( 10, 31, 39.00000000000000000, #372 ) ;
#360 = LOCAL_TIME ( 10, 31, 39.00000000000000000, #83 ) ;
#361 = DIRECTION ( 'NONE',  ( 3.491481338843133355E-15, -0.000000000000000000, 1.000000000000000000 ) ) ;
#362 = DATE_AND_TIME ( #231, #360 ) ;
#363 = EDGE_LOOP ( 'NONE', ( #84 ) ) ;
#364 = PRODUCT_DEFINITION ( 'UNKNOWN', '', #22, #352 ) ;
#365 = CIRCLE ( 'NONE', #120, 1.805000000000000160 ) ;
#366 = PERSON_AND_ORGANIZATION ( #304, #299 ) ;
#367 = EDGE_CURVE ( 'NONE', #29, #29, #331, .T. ) ;
#368 = PERSON_AND_ORGANIZATION ( #304, #299 ) ;
#369 = FACE_OUTER_BOUND ( 'NONE', #379, .T. ) ;
#370 = CIRCLE ( 'NONE', #376, 1.804999999999999938 ) ;
#371 = DIRECTION ( 'NONE',  ( 3.491481338843133355E-15, -0.000000000000000000, 1.000000000000000000 ) ) ;
#372 = COORDINATED_UNIVERSAL_TIME_OFFSET ( 1, 0, .AHEAD. ) ;
#373 = FACE_OUTER_BOUND ( 'NONE', #294, .T. ) ;
#374 = DIRECTION ( 'NONE',  ( 3.491481338843133355E-15, -0.000000000000000000, 1.000000000000000000 ) ) ;
#375 = FACE_BOUND ( 'NONE', #349, .T. ) ;
#376 = AXIS2_PLACEMENT_3D ( 'NONE', #380, #281, #248 ) ;
#377 = ORIENTED_EDGE ( 'NONE', *, *, #300, .F. ) ;
#378 = DIRECTION ( 'NONE',  ( -1.000000000000000000, 0.000000000000000000, 3.483862936518518626E-15 ) ) ;
#379 = EDGE_LOOP ( 'NONE', ( #277 ) ) ;
#380 = CARTESIAN_POINT ( 'NONE',  ( 4.037025298037363870E-15, 0.000000000000000000, 1.156249999999997558 ) ) ;
#381 = ORIENTED_EDGE ( 'NONE', *, *, #35, .T. ) ;
#382 = DIRECTION ( 'NONE',  ( 3.491481338843133355E-15, -0.000000000000000000, 1.000000000000000000 ) ) ;
#383 = AXIS2_PLACEMENT_3D ( 'NONE', #53, #154, #302 ) ;
#384 = EDGE_LOOP ( 'NONE', ( #198 ) ) ;
#385 = ADVANCED_FACE ( 'NONE', ( #351, #253 ), #65, .T. ) ;
#386 = CARTESIAN_POINT ( 'NONE',  ( 4.037025298037363870E-15, 0.000000000000000000, 1.156249999999997558 ) ) ;
#387 = FACE_BOUND ( 'NONE', #67, .T. ) ;
#388 = DIRECTION ( 'NONE',  ( 1.000000000000000000, 0.000000000000000000, -4.625929269271493211E-15 ) ) ;
#389 = APPLICATION_PROTOCOL_DEFINITION ( 'international standard', 'config_control_design', 1994, #280 ) ;
#390 = DIRECTION ( 'NONE',  ( 1.000000000000000000, 0.000000000000000000, -2.891205793294683355E-15 ) ) ;
#391 = FACE_OUTER_BOUND ( 'NONE', #200, .T. ) ;
#392 = AXIS2_PLACEMENT_3D ( 'NONE', #250, #217, #17 ) ;
#393 = CC_DESIGN_APPROVAL ( #210, ( #364 ) ) ;
#394 = ADVANCED_FACE ( 'NONE', ( #106, #75 ), #254, .T. ) ;
#395 = DIRECTION ( 'NONE',  ( 1.000000000000000000, 0.000000000000000000, -2.867311530540180161E-15 ) ) ;
ENDSEC;
END-ISO-10303-21;
