ISO-10303-21;
HEADER;
FILE_DESCRIPTION (( 'STEP AP203' ),
    '1' );
FILE_NAME ('413658.step',
    '2023-09-27T08:26:46',
    ( '' ),
    ( '' ),
    'SwSTEP 2.0',
    'SolidWorks 2022',
    '' );
FILE_SCHEMA (( 'CONFIG_CONTROL_DESIGN' ));
ENDSEC;

DATA;
#1 = APPLICATION_CONTEXT ( 'configuration controlled 3d designs of mechanical parts and assemblies' ) ;
#2 = ADVANCED_FACE ( 'NONE', ( #167, #12 ), #257, .T. ) ;
#3 = CARTESIAN_POINT ( 'NONE',  ( 1.418414293905036336E-15, 0.000000000000000000, 0.4062500000000038303 ) ) ;
#4 = CARTESIAN_POINT ( 'NONE',  ( 1.371987298107783859, 0.000000000000000000, 1.406249999999993117 ) ) ;
#5 = EDGE_LOOP ( 'NONE', ( #344 ) ) ;
#6 = CONICAL_SURFACE ( 'NONE', #101, 1.244074173710928877, 0.2617993877991428575 ) ;
#7 = EDGE_LOOP ( 'NONE', ( #47 ) ) ;
#8 = CC_DESIGN_PERSON_AND_ORGANIZATION_ASSIGNMENT ( #204, #79, ( #268 ) ) ;
#9 = ORIENTED_EDGE ( 'NONE', *, *, #388, .F. ) ;
#10 = CARTESIAN_POINT ( 'NONE',  ( 1.371987298107780529, 0.000000000000000000, 0.6562499999999923395 ) ) ;
#11 = DIRECTION ( 'NONE',  ( 3.491481338843133355E-15, -0.000000000000000000, 1.000000000000000000 ) ) ;
#12 = FACE_OUTER_BOUND ( 'NONE', #283, .T. ) ;
#13 = EDGE_CURVE ( 'NONE', #278, #278, #42, .T. ) ;
#14 = CARTESIAN_POINT ( 'NONE',  ( 1.805000000000003935, 0.000000000000000000, 1.156249999999991340 ) ) ;
#15 = CARTESIAN_POINT ( 'NONE',  ( 1.969195475107527212E-13, 0.000000000000000000, 56.39999999999999858 ) ) ;
#16 = AXIS2_PLACEMENT_3D ( 'NONE', #122, #363, #65 ) ;
#17 = ORIENTED_EDGE ( 'NONE', *, *, #314, .T. ) ;
#18 = LOCAL_TIME ( 10, 26, 46.00000000000000000, #85 ) ;
#19 = ADVANCED_FACE ( 'NONE', ( #384, #176 ), #67, .T. ) ;
#20 = FACE_OUTER_BOUND ( 'NONE', #75, .T. ) ;
#21 = DIRECTION ( 'NONE',  ( 3.491481338843133355E-15, -0.000000000000000000, 1.000000000000000000 ) ) ;
#22 = CC_DESIGN_PERSON_AND_ORGANIZATION_ASSIGNMENT ( #291, #207, ( #395 ) ) ;
#23 = AXIS2_PLACEMENT_3D ( 'NONE', #15, #77, #316 ) ;
#24 = CONICAL_SURFACE ( 'NONE', #239, 1.804999999999999716, 1.047197551196598964 ) ;
#25 = CC_DESIGN_APPROVAL ( #155, ( #243 ) ) ;
#26 = CARTESIAN_POINT ( 'NONE',  ( 0.000000000000000000, 0.000000000000000000, 0.000000000000000000 ) ) ;
#27 = DATE_AND_TIME ( #322, #82 ) ;
#28 = COORDINATED_UNIVERSAL_TIME_OFFSET ( 1, 0, .AHEAD. ) ;
#29 = CARTESIAN_POINT ( 'NONE',  ( 1.200196710227316047E-15, 0.000000000000000000, 0.3437499999999968359 ) ) ;
#30 = CARTESIAN_POINT ( 'NONE',  ( 3.818807714359668824E-15, 0.000000000000000000, 1.093749999999997558 ) ) ;
#31 = LOCAL_TIME ( 10, 26, 46.00000000000000000, #28 ) ;
#32 = EDGE_CURVE ( 'NONE', #340, #340, #267, .T. ) ;
#33 = CALENDAR_DATE ( 2023, 27, 9 ) ;
#34 = LOCAL_TIME ( 10, 26, 46.00000000000000000, #235 ) ;
#35 = DIRECTION ( 'NONE',  ( 1.000000000000000000, 0.000000000000000000, -3.491481338843132961E-15 ) ) ;
#36 = ADVANCED_BREP_SHAPE_REPRESENTATION ( '413658', ( #135, #323 ), #190 ) ;
#37 = EDGE_LOOP ( 'NONE', ( #70 ) ) ;
#38 = VERTEX_POINT ( 'NONE', #127 ) ;
#39 = EDGE_LOOP ( 'NONE', ( #189 ) ) ;
#40 = AXIS2_PLACEMENT_3D ( 'NONE', #252, #11, #171 ) ;
#41 = DIRECTION ( 'NONE',  ( 3.491481338843133355E-15, -0.000000000000000000, 1.000000000000000000 ) ) ;
#42 = CIRCLE ( 'NONE', #232, 2.399999999999995914 ) ;
#43 = ORIENTED_EDGE ( 'NONE', *, *, #140, .T. ) ;
#44 = CC_DESIGN_APPROVAL ( #87, ( #395 ) ) ;
#45 = CARTESIAN_POINT ( 'NONE',  ( 3.000000000000192291, 0.000000000000000000, 56.39999999999998437 ) ) ;
#46 = ORIENTED_EDGE ( 'NONE', *, *, #234, .T. ) ;
#47 = ORIENTED_EDGE ( 'NONE', *, *, #198, .T. ) ;
#48 = ADVANCED_FACE ( 'NONE', ( #321, #55 ), #358, .T. ) ;
#49 = CONICAL_SURFACE ( 'NONE', #126, 1.804999999999999938, 1.047197551196611842 ) ;
#50 = AXIS2_PLACEMENT_3D ( 'NONE', #53, #78, #200 ) ;
#51 = ADVANCED_FACE ( 'NONE', ( #161, #298 ), #24, .T. ) ;
#52 = CYLINDRICAL_SURFACE ( 'NONE', #381, 1.371987298107778752 ) ;
#53 = CARTESIAN_POINT ( 'NONE',  ( 5.118099314545375245E-14, 0.000000000000000000, 14.65881904510251488 ) ) ;
#54 = DIRECTION ( 'NONE',  ( 1.000000000000000000, 0.000000000000000000, -4.183167320648562961E-15 ) ) ;
#55 = FACE_OUTER_BOUND ( 'NONE', #245, .T. ) ;
#56 = PERSON_AND_ORGANIZATION_ROLE ( 'design_supplier' ) ;
#57 = AXIS2_PLACEMENT_3D ( 'NONE', #136, #173, #319 ) ;
#58 = APPROVAL_ROLE ( '' ) ;
#59 = DIRECTION ( 'NONE',  ( 1.000000000000000000, 0.000000000000000000, -3.469446951953614189E-15 ) ) ;
#60 = PERSON_AND_ORGANIZATION ( #272, #158 ) ;
#61 = ADVANCED_FACE ( 'NONE', ( #86, #329 ), #367, .T. ) ;
#62 = FACE_OUTER_BOUND ( 'NONE', #76, .T. ) ;
#63 = APPROVAL_DATE_TIME ( #331, #155 ) ;
#64 = CYLINDRICAL_SURFACE ( 'NONE', #94, 1.371987298107778308 ) ;
#65 = DIRECTION ( 'NONE',  ( 1.000000000000000000, 0.000000000000000000, -3.477065396680856654E-15 ) ) ;
#66 = VERTEX_POINT ( 'NONE', #165 ) ;
#67 = CONICAL_SURFACE ( 'NONE', #311, 1.371987298107778752, 1.047197551196598964 ) ;
#68 = CARTESIAN_POINT ( 'NONE',  ( 1.371987298107781861, 0.000000000000000000, 0.8437499999999925615 ) ) ;
#69 = EDGE_LOOP ( 'NONE', ( #98 ) ) ;
#70 = ORIENTED_EDGE ( 'NONE', *, *, #256, .T. ) ;
#71 = CIRCLE ( 'NONE', #317, 1.371987298107778752 ) ;
#72 = EDGE_LOOP ( 'NONE', ( #130 ) ) ;
#73 =( NAMED_UNIT ( * ) PLANE_ANGLE_UNIT ( ) SI_UNIT ( $, .RADIAN. ) );
#74 = PLANE ( 'NONE',  #120 ) ;
#75 = EDGE_LOOP ( 'NONE', ( #282 ) ) ;
#76 = EDGE_LOOP ( 'NONE', ( #223 ) ) ;
#77 = DIRECTION ( 'NONE',  ( 3.491481338843133355E-15, -0.000000000000000000, 1.000000000000000000 ) ) ;
#78 = DIRECTION ( 'NONE',  ( 3.491481338843133355E-15, -0.000000000000000000, 1.000000000000000000 ) ) ;
#79 = PERSON_AND_ORGANIZATION_ROLE ( 'classification_officer' ) ;
#80 = FACE_OUTER_BOUND ( 'NONE', #280, .T. ) ;
#81 = APPROVAL_STATUS ( 'not_yet_approved' ) ;
#82 = LOCAL_TIME ( 10, 26, 46.00000000000000000, #146 ) ;
#83 = SECURITY_CLASSIFICATION_LEVEL ( 'unclassified' ) ;
#84 = ADVANCED_FACE ( 'NONE', ( #209, #265 ), #277, .F. ) ;
#85 = COORDINATED_UNIVERSAL_TIME_OFFSET ( 1, 0, .AHEAD. ) ;
#86 = FACE_BOUND ( 'NONE', #225, .T. ) ;
#87 = APPROVAL ( #326, 'UNSPECIFIED' ) ;
#88 = CIRCLE ( 'NONE', #142, 1.209999999999998854 ) ;
#89 = ADVANCED_FACE ( 'NONE', ( #233, #296 ), #49, .T. ) ;
#90 = DIRECTION ( 'NONE',  ( 1.000000000000000000, 0.000000000000000000, -3.483862936518519020E-15 ) ) ;
#91 = CARTESIAN_POINT ( 'NONE',  ( 1.244074173710979947, 0.000000000000000000, 14.65881904510250955 ) ) ;
#92 = DIRECTION ( 'NONE',  ( 1.000000000000000000, 0.000000000000000000, -3.477065396680855865E-15 ) ) ;
#93 = FACE_OUTER_BOUND ( 'NONE', #248, .T. ) ;
#94 = AXIS2_PLACEMENT_3D ( 'NONE', #186, #123, #183 ) ;
#95 = DIRECTION ( 'NONE',  ( -1.000000000000000000, 0.000000000000000000, 3.491481338843133355E-15 ) ) ;
#96 = AXIS2_PLACEMENT_3D ( 'NONE', #169, #366, #97 ) ;
#97 = DIRECTION ( 'NONE',  ( 1.000000000000000000, 0.000000000000000000, -5.734623061080357167E-15 ) ) ;
#98 = ORIENTED_EDGE ( 'NONE', *, *, #234, .F. ) ;
#99 = DIRECTION ( 'NONE',  ( -3.491481338843133355E-15, 0.000000000000000000, -1.000000000000000000 ) ) ;
#100 = EDGE_LOOP ( 'NONE', ( #128 ) ) ;
#101 = AXIS2_PLACEMENT_3D ( 'NONE', #145, #182, #54 ) ;
#102 = ORIENTED_EDGE ( 'NONE', *, *, #198, .F. ) ;
#103 = CC_DESIGN_PERSON_AND_ORGANIZATION_ASSIGNMENT ( #273, #56, ( #395 ) ) ;
#104 = EDGE_LOOP ( 'NONE', ( #375 ) ) ;
#105 = DIRECTION ( 'NONE',  ( 3.491481338843133355E-15, -0.000000000000000000, 1.000000000000000000 ) ) ;
#106 = AXIS2_PLACEMENT_3D ( 'NONE', #338, #41, #35 ) ;
#107 = ORIENTED_EDGE ( 'NONE', *, *, #256, .F. ) ;
#108 = APPROVAL_STATUS ( 'not_yet_approved' ) ;
#109 = EDGE_CURVE ( 'NONE', #156, #156, #71, .T. ) ;
#110 = APPROVAL_ROLE ( '' ) ;
#111 = DESIGN_CONTEXT ( 'detailed design', #1, 'design' ) ;
#112 = MECHANICAL_CONTEXT ( 'NONE', #119, 'mechanical' ) ;
#113 = CARTESIAN_POINT ( 'NONE',  ( 1.418414293905036336E-15, 0.000000000000000000, 0.4062500000000038303 ) ) ;
#114 = PRODUCT_DEFINITION_SHAPE ( 'NONE', 'NONE',  #243 ) ;
#115 = ADVANCED_FACE ( 'NONE', ( #241, #62 ), #64, .T. ) ;
#116 = DIRECTION ( 'NONE',  ( 3.491481338843133355E-15, -0.000000000000000000, 1.000000000000000000 ) ) ;
#117 = DIRECTION ( 'NONE',  ( 3.491481338843133355E-15, -0.000000000000000000, 1.000000000000000000 ) ) ;
#118 = CARTESIAN_POINT ( 'NONE',  ( 0.000000000000000000, 0.000000000000000000, 0.000000000000000000 ) ) ;
#119 = APPLICATION_CONTEXT ( 'configuration controlled 3d designs of mechanical parts and assemblies' ) ;
#120 = AXIS2_PLACEMENT_3D ( 'NONE', #259, #351, #380 ) ;
#121 = DIRECTION ( 'NONE',  ( 1.000000000000000000, 0.000000000000000000, -3.491481338843133355E-15 ) ) ;
#122 = CARTESIAN_POINT ( 'NONE',  ( 5.237222008264704766E-15, 0.000000000000000000, 1.500000000000001332 ) ) ;
#123 = DIRECTION ( 'NONE',  ( 3.491481338843133355E-15, -0.000000000000000000, 1.000000000000000000 ) ) ;
#124 = VERTEX_POINT ( 'NONE', #249 ) ;
#125 = EDGE_LOOP ( 'NONE', ( #9 ) ) ;
#126 = AXIS2_PLACEMENT_3D ( 'NONE', #3, #394, #390 ) ;
#127 = CARTESIAN_POINT ( 'NONE',  ( 3.000000000000074163, 0.000000000000000000, 21.21202344313585542 ) ) ;
#128 = ORIENTED_EDGE ( 'NONE', *, *, #159, .F. ) ;
#129 = CARTESIAN_POINT ( 'NONE',  ( 1.805000000000003713, 0.000000000000000000, 1.093749999999991118 ) ) ;
#130 = ORIENTED_EDGE ( 'NONE', *, *, #32, .T. ) ;
#131 = VERTEX_POINT ( 'NONE', #379 ) ;
#132 = EDGE_LOOP ( 'NONE', ( #43 ) ) ;
#133 = CIRCLE ( 'NONE', #187, 1.804999999999999938 ) ;
#134 =( LENGTH_UNIT ( ) NAMED_UNIT ( * ) SI_UNIT ( .MILLI., .METRE. ) );
#135 = MANIFOLD_SOLID_BREP ( 'Corps-Déplacer/Copier1', #383 ) ;
#136 = CARTESIAN_POINT ( 'NONE',  ( 1.990144363140586139E-13, 0.000000000000000000, 57.00000000000000000 ) ) ;
#137 = DIRECTION ( 'NONE',  ( 1.000000000000000000, 0.000000000000000000, -2.891205793294683355E-15 ) ) ;
#138 = ORIENTED_EDGE ( 'NONE', *, *, #170, .T. ) ;
#139 = CARTESIAN_POINT ( 'NONE',  ( 1.210000000000005071, 0.000000000000000000, 1.499999999999997113 ) ) ;
#140 = EDGE_CURVE ( 'NONE', #66, #66, #374, .T. ) ;
#141 = DIRECTION ( 'NONE',  ( 1.000000000000000000, 0.000000000000000000, -5.057549667899427071E-15 ) ) ;
#142 = AXIS2_PLACEMENT_3D ( 'NONE', #372, #240, #362 ) ;
#143 = FACE_OUTER_BOUND ( 'NONE', #7, .T. ) ;
#144 = APPROVAL_DATE_TIME ( #27, #369 ) ;
#145 = CARTESIAN_POINT ( 'NONE',  ( 5.118099314545375245E-14, 0.000000000000000000, 14.65881904510251488 ) ) ;
#146 = COORDINATED_UNIVERSAL_TIME_OFFSET ( 1, 0, .AHEAD. ) ;
#147 = DIRECTION ( 'NONE',  ( 3.491481338843133355E-15, -0.000000000000000000, 1.000000000000000000 ) ) ;
#148 = DIRECTION ( 'NONE',  ( -3.491481338843133355E-15, 0.000000000000000000, -1.000000000000000000 ) ) ;
#149 = CIRCLE ( 'NONE', #23, 2.999999999999995115 ) ;
#150 = DIRECTION ( 'NONE',  ( 0.000000000000000000, 0.000000000000000000, 1.000000000000000000 ) ) ;
#151 = DIRECTION ( 'NONE',  ( -3.491481338843133355E-15, 0.000000000000000000, -1.000000000000000000 ) ) ;
#152 = PERSON_AND_ORGANIZATION ( #272, #158 ) ;
#153 = PLANE ( 'NONE',  #197 ) ;
#154 = DIRECTION ( 'NONE',  ( -1.000000000000000000, 0.000000000000000000, 4.625929269271493211E-15 ) ) ;
#155 = APPROVAL ( #81, 'UNSPECIFIED' ) ;
#156 = VERTEX_POINT ( 'NONE', #68 ) ;
#157 = CARTESIAN_POINT ( 'NONE',  ( 1.990144363140586139E-13, 0.000000000000000000, 57.00000000000000000 ) ) ;
#158 = ORGANIZATION ( 'UNSPECIFIED', 'UNSPECIFIED', '' ) ;
#159 = EDGE_CURVE ( 'NONE', #334, #334, #359, .T. ) ;
#160 = CARTESIAN_POINT ( 'NONE',  ( 2.400000000000194866, 0.000000000000000000, 56.99999999999999289 ) ) ;
#161 = FACE_BOUND ( 'NONE', #104, .T. ) ;
#162 = EDGE_LOOP ( 'NONE', ( #309 ) ) ;
#163 = FACE_BOUND ( 'NONE', #164, .T. ) ;
#164 = EDGE_LOOP ( 'NONE', ( #195 ) ) ;
#165 = CARTESIAN_POINT ( 'NONE',  ( 1.371987298107783859, 0.000000000000000000, 1.499999999999996669 ) ) ;
#166 = ORIENTED_EDGE ( 'NONE', *, *, #13, .F. ) ;
#167 = FACE_OUTER_BOUND ( 'NONE', #125, .T. ) ;
#168 = VERTEX_POINT ( 'NONE', #10 ) ;
#169 = CARTESIAN_POINT ( 'NONE',  ( 1.990144363140586139E-13, 0.000000000000000000, 57.00000000000000000 ) ) ;
#170 = EDGE_CURVE ( 'NONE', #276, #276, #330, .T. ) ;
#171 = DIRECTION ( 'NONE',  ( 1.000000000000000000, 0.000000000000000000, -3.404932442516460219E-15 ) ) ;
#172 = EDGE_CURVE ( 'NONE', #124, #124, #365, .T. ) ;
#173 = DIRECTION ( 'NONE',  ( 3.491481338843133355E-15, -0.000000000000000000, 1.000000000000000000 ) ) ;
#174 = PERSON_AND_ORGANIZATION_ROLE ( 'creator' ) ;
#175 = APPROVAL_PERSON_ORGANIZATION ( #60, #369, #58 ) ;
#176 = FACE_BOUND ( 'NONE', #219, .T. ) ;
#177 = PERSON_AND_ORGANIZATION_ROLE ( 'design_owner' ) ;
#178 = CARTESIAN_POINT ( 'NONE',  ( 4.037025298037363870E-15, 0.000000000000000000, 1.156249999999997558 ) ) ;
#179 = CARTESIAN_POINT ( 'NONE',  ( 4.909895632748147998E-15, 0.000000000000000000, 1.406249999999997780 ) ) ;
#180 = AXIS2_PLACEMENT_3D ( 'NONE', #30, #213, #206 ) ;
#181 = PERSON_AND_ORGANIZATION ( #272, #158 ) ;
#182 = DIRECTION ( 'NONE',  ( 3.491481338843133355E-15, -0.000000000000000000, 1.000000000000000000 ) ) ;
#183 = DIRECTION ( 'NONE',  ( 1.000000000000000000, 0.000000000000000000, -5.057549667899428649E-15 ) ) ;
#184 = FACE_BOUND ( 'NONE', #72, .T. ) ;
#185 = EDGE_CURVE ( 'NONE', #38, #38, #306, .T. ) ;
#186 = CARTESIAN_POINT ( 'NONE',  ( 1.990144363140586139E-13, 0.000000000000000000, 57.00000000000000000 ) ) ;
#187 = AXIS2_PLACEMENT_3D ( 'NONE', #29, #270, #236 ) ;
#188 = ORIENTED_EDGE ( 'NONE', *, *, #140, .F. ) ;
#189 = ORIENTED_EDGE ( 'NONE', *, *, #279, .F. ) ;
#190 =( GEOMETRIC_REPRESENTATION_CONTEXT ( 3 ) GLOBAL_UNCERTAINTY_ASSIGNED_CONTEXT ( ( #299 ) ) GLOBAL_UNIT_ASSIGNED_CONTEXT ( ( #134, #73, #224 ) ) REPRESENTATION_CONTEXT ( 'NONE', 'WORKASPACE' ) );
#191 = VERTEX_POINT ( 'NONE', #255 ) ;
#192 = ORIENTED_EDGE ( 'NONE', *, *, #109, .F. ) ;
#193 = EDGE_LOOP ( 'NONE', ( #320 ) ) ;
#194 = EDGE_CURVE ( 'NONE', #247, #247, #347, .T. ) ;
#195 = ORIENTED_EDGE ( 'NONE', *, *, #172, .T. ) ;
#196 = EDGE_LOOP ( 'NONE', ( #284 ) ) ;
#197 = AXIS2_PLACEMENT_3D ( 'NONE', #304, #99, #95 ) ;
#198 = EDGE_CURVE ( 'NONE', #191, #191, #133, .T. ) ;
#199 = CARTESIAN_POINT ( 'NONE',  ( 2.291284628615796404E-15, 0.000000000000000000, 0.6562499999999971134 ) ) ;
#200 = DIRECTION ( 'NONE',  ( 1.000000000000000000, 0.000000000000000000, -4.183167320648562961E-15 ) ) ;
#201 = COORDINATED_UNIVERSAL_TIME_OFFSET ( 1, 0, .AHEAD. ) ;
#202 = DATE_AND_TIME ( #228, #325 ) ;
#203 = APPROVAL_PERSON_ORGANIZATION ( #389, #155, #350 ) ;
#204 = PERSON_AND_ORGANIZATION ( #272, #158 ) ;
#205 = CARTESIAN_POINT ( 'NONE',  ( 7.406138401081193087E-14, 0.000000000000000000, 21.21202344313586607 ) ) ;
#206 = DIRECTION ( 'NONE',  ( 1.000000000000000000, 0.000000000000000000, -3.483862936518519020E-15 ) ) ;
#207 = PERSON_AND_ORGANIZATION_ROLE ( 'creator' ) ;
#208 = ADVANCED_FACE ( 'NONE', ( #361, #184 ), #6, .T. ) ;
#209 = FACE_BOUND ( 'NONE', #69, .T. ) ;
#210 = AXIS2_PLACEMENT_3D ( 'NONE', #178, #212, #90 ) ;
#211 = DIRECTION ( 'NONE',  ( 1.000000000000000000, 0.000000000000000000, -4.625929269271490055E-15 ) ) ;
#212 = DIRECTION ( 'NONE',  ( 3.491481338843133355E-15, -0.000000000000000000, 1.000000000000000000 ) ) ;
#213 = DIRECTION ( 'NONE',  ( 3.491481338843133355E-15, -0.000000000000000000, 1.000000000000000000 ) ) ;
#214 = AXIS2_PLACEMENT_3D ( 'NONE', #231, #147, #211 ) ;
#215 = EDGE_LOOP ( 'NONE', ( #188 ) ) ;
#216 = CARTESIAN_POINT ( 'NONE',  ( 5.027733127934112032E-14, 0.000000000000000000, 14.40000000000000036 ) ) ;
#217 = ORIENTED_EDGE ( 'NONE', *, *, #194, .T. ) ;
#218 = CC_DESIGN_PERSON_AND_ORGANIZATION_ASSIGNMENT ( #152, #177, ( #360 ) ) ;
#219 = EDGE_LOOP ( 'NONE', ( #370 ) ) ;
#220 = AXIS2_PLACEMENT_3D ( 'NONE', #205, #327, #59 ) ;
#221 = CC_DESIGN_APPROVAL ( #369, ( #268 ) ) ;
#222 = FACE_OUTER_BOUND ( 'NONE', #310, .T. ) ;
#223 = ORIENTED_EDGE ( 'NONE', *, *, #279, .T. ) ;
#224 =( NAMED_UNIT ( * ) SI_UNIT ( $, .STERADIAN. ) SOLID_ANGLE_UNIT ( ) );
#225 = EDGE_LOOP ( 'NONE', ( #166 ) ) ;
#226 = DIRECTION ( 'NONE',  ( 1.000000000000000000, 0.000000000000000000, -3.477065396680857837E-15 ) ) ;
#227 = CIRCLE ( 'NONE', #40, 1.209999999999999964 ) ;
#228 = CALENDAR_DATE ( 2023, 27, 9 ) ;
#229 = DATE_TIME_ROLE ( 'classification_date' ) ;
#230 = TOROIDAL_SURFACE ( 'NONE', #262, 2.209999999999998632, 0.9999999999999995559 ) ;
#231 = CARTESIAN_POINT ( 'NONE',  ( 1.990144363140586139E-13, 0.000000000000000000, 57.00000000000000000 ) ) ;
#232 = AXIS2_PLACEMENT_3D ( 'NONE', #285, #373, #137 ) ;
#233 = FACE_BOUND ( 'NONE', #39, .T. ) ;
#234 = EDGE_CURVE ( 'NONE', #286, #286, #227, .T. ) ;
#235 = COORDINATED_UNIVERSAL_TIME_OFFSET ( 1, 0, .AHEAD. ) ;
#236 = DIRECTION ( 'NONE',  ( 1.000000000000000000, 0.000000000000000000, -3.483862936518518626E-15 ) ) ;
#237 = CARTESIAN_POINT ( 'NONE',  ( 4.037025298037363870E-15, 0.000000000000000000, 1.156249999999997558 ) ) ;
#238 = AXIS2_PLACEMENT_3D ( 'NONE', #113, #116, #355 ) ;
#239 = AXIS2_PLACEMENT_3D ( 'NONE', #237, #148, #305 ) ;
#240 = DIRECTION ( 'NONE',  ( 3.491481338843133355E-15, -0.000000000000000000, 1.000000000000000000 ) ) ;
#241 = FACE_OUTER_BOUND ( 'NONE', #313, .T. ) ;
#242 = DIRECTION ( 'NONE',  ( 1.000000000000000000, 0.000000000000000000, -3.477065396680855865E-15 ) ) ;
#243 = PRODUCT_DEFINITION ( 'UNKNOWN', '', #395, #111 ) ;
#244 = AXIS2_PLACEMENT_3D ( 'NONE', #199, #376, #226 ) ;
#245 = EDGE_LOOP ( 'NONE', ( #250 ) ) ;
#246 = CC_DESIGN_SECURITY_CLASSIFICATION ( #268, ( #395 ) ) ;
#247 = VERTEX_POINT ( 'NONE', #14 ) ;
#248 = EDGE_LOOP ( 'NONE', ( #102 ) ) ;
#249 = CARTESIAN_POINT ( 'NONE',  ( 1.209607534898196501, 0.000000000000000000, -4.223322135421096883E-15 ) ) ;
#250 = ORIENTED_EDGE ( 'NONE', *, *, #159, .T. ) ;
#251 = VERTEX_POINT ( 'NONE', #258 ) ;
#252 = CARTESIAN_POINT ( 'NONE',  ( 5.237222008264704766E-15, 0.000000000000000000, 1.500000000000001332 ) ) ;
#253 = EDGE_LOOP ( 'NONE', ( #343 ) ) ;
#254 = AXIS2_PLACEMENT_3D ( 'NONE', #118, #364, #303 ) ;
#255 = CARTESIAN_POINT ( 'NONE',  ( 1.805000000000001270, 0.000000000000000000, 0.3437499999999905631 ) ) ;
#256 = EDGE_CURVE ( 'NONE', #312, #312, #149, .T. ) ;
#257 = CYLINDRICAL_SURFACE ( 'NONE', #96, 1.209999999999999298 ) ;
#258 = CARTESIAN_POINT ( 'NONE',  ( 1.210000000000049036, 0.000000000000000000, 14.40000000000000036 ) ) ;
#259 = CARTESIAN_POINT ( 'NONE',  ( -1.856896473335879499E-32, 0.000000000000000000, -5.318362875601515270E-18 ) ) ;
#260 = ADVANCED_FACE ( 'NONE', ( #222, #143 ), #287, .T. ) ;
#261 = FACE_OUTER_BOUND ( 'NONE', #377, .T. ) ;
#262 = AXIS2_PLACEMENT_3D ( 'NONE', #216, #342, #121 ) ;
#263 = AXIS2_PLACEMENT_3D ( 'NONE', #333, #387, #274 ) ;
#264 = PERSON_AND_ORGANIZATION ( #272, #158 ) ;
#265 = FACE_OUTER_BOUND ( 'NONE', #132, .T. ) ;
#266 = ADVANCED_FACE ( 'NONE', ( #20 ), #74, .F. ) ;
#267 = CIRCLE ( 'NONE', #50, 1.244074173710928877 ) ;
#268 = SECURITY_CLASSIFICATION ( '', '', #83 ) ;
#269 = DIRECTION ( 'NONE',  ( 1.000000000000000000, 0.000000000000000000, 0.000000000000000000 ) ) ;
#270 = DIRECTION ( 'NONE',  ( 3.491481338843133355E-15, -0.000000000000000000, 1.000000000000000000 ) ) ;
#271 = CC_DESIGN_PERSON_AND_ORGANIZATION_ASSIGNMENT ( #264, #174, ( #243 ) ) ;
#272 = PERSON ( 'UNSPECIFIED', 'UNSPECIFIED', 'UNSPECIFIED', ('UNSPECIFIED'), ('UNSPECIFIED'), ('UNSPECIFIED') ) ;
#273 = PERSON_AND_ORGANIZATION ( #272, #158 ) ;
#274 = DIRECTION ( 'NONE',  ( -1.000000000000000000, 0.000000000000000000, 3.491481338843133355E-15 ) ) ;
#275 = CARTESIAN_POINT ( 'NONE',  ( 1.969195475107527212E-13, 0.000000000000000000, 56.39999999999999858 ) ) ;
#276 = VERTEX_POINT ( 'NONE', #4 ) ;
#277 = PLANE ( 'NONE',  #263 ) ;
#278 = VERTEX_POINT ( 'NONE', #160 ) ;
#279 = EDGE_CURVE ( 'NONE', #168, #168, #290, .T. ) ;
#280 = EDGE_LOOP ( 'NONE', ( #138 ) ) ;
#281 = CONICAL_SURFACE ( 'NONE', #106, 1.209607534898196501, 1.047197551196603182 ) ;
#282 = ORIENTED_EDGE ( 'NONE', *, *, #172, .F. ) ;
#283 = EDGE_LOOP ( 'NONE', ( #46 ) ) ;
#284 = ORIENTED_EDGE ( 'NONE', *, *, #185, .T. ) ;
#285 = CARTESIAN_POINT ( 'NONE',  ( 1.990144363140586139E-13, 0.000000000000000000, 57.00000000000000000 ) ) ;
#286 = VERTEX_POINT ( 'NONE', #139 ) ;
#287 = CYLINDRICAL_SURFACE ( 'NONE', #57, 1.804999999999999938 ) ;
#288 = CC_DESIGN_DATE_AND_TIME_ASSIGNMENT ( #353, #295, ( #243 ) ) ;
#289 = CARTESIAN_POINT ( 'NONE',  ( 1.990144363140586139E-13, 0.000000000000000000, 57.00000000000000000 ) ) ;
#290 = CIRCLE ( 'NONE', #244, 1.371987298107778086 ) ;
#291 = PERSON_AND_ORGANIZATION ( #272, #158 ) ;
#292 = AXIS2_PLACEMENT_3D ( 'NONE', #275, #151, #154 ) ;
#293 = APPLICATION_PROTOCOL_DEFINITION ( 'international standard', 'config_control_design', 1994, #119 ) ;
#294 = CARTESIAN_POINT ( 'NONE',  ( 2.945937379648884302E-15, 0.000000000000000000, 0.8437499999999973355 ) ) ;
#295 = DATE_TIME_ROLE ( 'creation_date' ) ;
#296 = FACE_OUTER_BOUND ( 'NONE', #382, .T. ) ;
#297 = CIRCLE ( 'NONE', #238, 1.804999999999999938 ) ;
#298 = FACE_OUTER_BOUND ( 'NONE', #315, .T. ) ;
#299 = UNCERTAINTY_MEASURE_WITH_UNIT (LENGTH_MEASURE( 1.000000000000000082E-05 ), #134, 'distance_accuracy_value', 'NONE');
#300 = PRODUCT_RELATED_PRODUCT_CATEGORY ( 'detail', '', ( #360 ) ) ;
#301 = CALENDAR_DATE ( 2023, 27, 9 ) ;
#302 = FACE_OUTER_BOUND ( 'NONE', #5, .T. ) ;
#303 = DIRECTION ( 'NONE',  ( 1.000000000000000000, 0.000000000000000000, -3.491481338843132961E-15 ) ) ;
#304 = CARTESIAN_POINT ( 'NONE',  ( 1.990144363140586139E-13, 2.399999999999995914, 57.00000000000000000 ) ) ;
#305 = DIRECTION ( 'NONE',  ( -1.000000000000000000, 0.000000000000000000, 3.483862936518519020E-15 ) ) ;
#306 = CIRCLE ( 'NONE', #220, 3.000000000000000000 ) ;
#307 = ADVANCED_FACE ( 'NONE', ( #346, #80 ), #52, .T. ) ;
#308 = ADVANCED_FACE ( 'NONE', ( #261, #354 ), #332, .T. ) ;
#309 = ORIENTED_EDGE ( 'NONE', *, *, #194, .F. ) ;
#310 = EDGE_LOOP ( 'NONE', ( #378 ) ) ;
#311 = AXIS2_PLACEMENT_3D ( 'NONE', #294, #105, #349 ) ;
#312 = VERTEX_POINT ( 'NONE', #45 ) ;
#313 = EDGE_LOOP ( 'NONE', ( #192 ) ) ;
#314 = EDGE_CURVE ( 'NONE', #131, #131, #297, .T. ) ;
#315 = EDGE_LOOP ( 'NONE', ( #217 ) ) ;
#316 = DIRECTION ( 'NONE',  ( 1.000000000000000000, 0.000000000000000000, -4.625929269271493211E-15 ) ) ;
#317 = AXIS2_PLACEMENT_3D ( 'NONE', #356, #391, #92 ) ;
#318 = AXIS2_PLACEMENT_3D ( 'NONE', #157, #117, #335 ) ;
#319 = DIRECTION ( 'NONE',  ( 1.000000000000000000, 0.000000000000000000, -3.844262550641124028E-15 ) ) ;
#320 = ORIENTED_EDGE ( 'NONE', *, *, #388, .T. ) ;
#321 = FACE_OUTER_BOUND ( 'NONE', #162, .T. ) ;
#322 = CALENDAR_DATE ( 2023, 27, 9 ) ;
#323 = AXIS2_PLACEMENT_3D ( 'NONE', #26, #150, #269 ) ;
#324 = SHAPE_DEFINITION_REPRESENTATION ( #114, #36 ) ;
#325 = LOCAL_TIME ( 10, 26, 46.00000000000000000, #201 ) ;
#326 = APPROVAL_STATUS ( 'not_yet_approved' ) ;
#327 = DIRECTION ( 'NONE',  ( 3.491481338843133355E-15, -0.000000000000000000, 1.000000000000000000 ) ) ;
#328 = APPLICATION_PROTOCOL_DEFINITION ( 'international standard', 'config_control_design', 1994, #1 ) ;
#329 = FACE_OUTER_BOUND ( 'NONE', #37, .T. ) ;
#330 = CIRCLE ( 'NONE', #392, 1.371987298107778752 ) ;
#331 = DATE_AND_TIME ( #357, #34 ) ;
#332 = CYLINDRICAL_SURFACE ( 'NONE', #214, 2.999999999999997335 ) ;
#333 = CARTESIAN_POINT ( 'NONE',  ( 5.237222008264700033E-15, 1.371987298107778530, 1.500000000000000000 ) ) ;
#334 = VERTEX_POINT ( 'NONE', #129 ) ;
#335 = DIRECTION ( 'NONE',  ( 1.000000000000000000, 0.000000000000000000, -3.844262550641124028E-15 ) ) ;
#336 = FACE_OUTER_BOUND ( 'NONE', #193, .T. ) ;
#337 = DIRECTION ( 'NONE',  ( 3.491481338843133355E-15, -0.000000000000000000, 1.000000000000000000 ) ) ;
#338 = CARTESIAN_POINT ( 'NONE',  ( 0.000000000000000000, 0.000000000000000000, 0.000000000000000000 ) ) ;
#339 = ADVANCED_FACE ( 'NONE', ( #302 ), #153, .F. ) ;
#340 = VERTEX_POINT ( 'NONE', #91 ) ;
#341 = ORIENTED_EDGE ( 'NONE', *, *, #32, .F. ) ;
#342 = DIRECTION ( 'NONE',  ( 3.491481338843133355E-15, -0.000000000000000000, 1.000000000000000000 ) ) ;
#343 = ORIENTED_EDGE ( 'NONE', *, *, #185, .F. ) ;
#344 = ORIENTED_EDGE ( 'NONE', *, *, #13, .T. ) ;
#345 = EDGE_LOOP ( 'NONE', ( #341 ) ) ;
#346 = FACE_OUTER_BOUND ( 'NONE', #215, .T. ) ;
#347 = CIRCLE ( 'NONE', #210, 1.804999999999999716 ) ;
#348 = ADVANCED_FACE ( 'NONE', ( #393, #336 ), #230, .F. ) ;
#349 = DIRECTION ( 'NONE',  ( 1.000000000000000000, 0.000000000000000000, -3.477065396680855865E-15 ) ) ;
#350 = APPROVAL_ROLE ( '' ) ;
#351 = DIRECTION ( 'NONE',  ( 3.491481338843133355E-15, -0.000000000000000000, 1.000000000000000000 ) ) ;
#352 = DATE_AND_TIME ( #301, #18 ) ;
#353 = DATE_AND_TIME ( #33, #31 ) ;
#354 = FACE_OUTER_BOUND ( 'NONE', #196, .T. ) ;
#355 = DIRECTION ( 'NONE',  ( 1.000000000000000000, 0.000000000000000000, -3.483862936518518626E-15 ) ) ;
#356 = CARTESIAN_POINT ( 'NONE',  ( 2.945937379648884302E-15, 0.000000000000000000, 0.8437499999999973355 ) ) ;
#357 = CALENDAR_DATE ( 2023, 27, 9 ) ;
#358 = CYLINDRICAL_SURFACE ( 'NONE', #318, 1.804999999999999716 ) ;
#359 = CIRCLE ( 'NONE', #180, 1.804999999999999716 ) ;
#360 = PRODUCT ( '413658', '413658', '', ( #112 ) ) ;
#361 = FACE_OUTER_BOUND ( 'NONE', #253, .T. ) ;
#362 = DIRECTION ( 'NONE',  ( 1.000000000000000000, 0.000000000000000000, -2.867311530540179767E-15 ) ) ;
#363 = DIRECTION ( 'NONE',  ( 3.491481338843133355E-15, -0.000000000000000000, 1.000000000000000000 ) ) ;
#364 = DIRECTION ( 'NONE',  ( 3.491481338843133355E-15, -0.000000000000000000, 1.000000000000000000 ) ) ;
#365 = CIRCLE ( 'NONE', #254, 1.209607534898196501 ) ;
#366 = DIRECTION ( 'NONE',  ( 3.491481338843133355E-15, -0.000000000000000000, 1.000000000000000000 ) ) ;
#367 = CONICAL_SURFACE ( 'NONE', #292, 2.999999999999995115, 0.7853981633974450594 ) ;
#368 = APPROVAL_PERSON_ORGANIZATION ( #181, #87, #110 ) ;
#369 = APPROVAL ( #108, 'UNSPECIFIED' ) ;
#370 = ORIENTED_EDGE ( 'NONE', *, *, #109, .T. ) ;
#371 = ADVANCED_FACE ( 'NONE', ( #93, #163 ), #281, .T. ) ;
#372 = CARTESIAN_POINT ( 'NONE',  ( 5.027733127934113294E-14, 0.000000000000000000, 14.40000000000000391 ) ) ;
#373 = DIRECTION ( 'NONE',  ( 3.491481338843133355E-15, -0.000000000000000000, 1.000000000000000000 ) ) ;
#374 = CIRCLE ( 'NONE', #16, 1.371987298107778530 ) ;
#375 = ORIENTED_EDGE ( 'NONE', *, *, #170, .F. ) ;
#376 = DIRECTION ( 'NONE',  ( 3.491481338843133355E-15, -0.000000000000000000, 1.000000000000000000 ) ) ;
#377 = EDGE_LOOP ( 'NONE', ( #107 ) ) ;
#378 = ORIENTED_EDGE ( 'NONE', *, *, #314, .F. ) ;
#379 = CARTESIAN_POINT ( 'NONE',  ( 1.805000000000001492, 0.000000000000000000, 0.4062499999999975575 ) ) ;
#380 = DIRECTION ( 'NONE',  ( 1.000000000000000000, 0.000000000000000000, -3.491481338843133355E-15 ) ) ;
#381 = AXIS2_PLACEMENT_3D ( 'NONE', #289, #21, #141 ) ;
#382 = EDGE_LOOP ( 'NONE', ( #17 ) ) ;
#383 = CLOSED_SHELL ( 'NONE', ( #266, #371, #260, #89, #115, #19, #48, #51, #307, #84, #2, #348, #208, #308, #61, #339 ) ) ;
#384 = FACE_OUTER_BOUND ( 'NONE', #100, .T. ) ;
#385 = CC_DESIGN_DATE_AND_TIME_ASSIGNMENT ( #202, #229, ( #268 ) ) ;
#386 = APPROVAL_DATE_TIME ( #352, #87 ) ;
#387 = DIRECTION ( 'NONE',  ( -3.491481338843133355E-15, 0.000000000000000000, -1.000000000000000000 ) ) ;
#388 = EDGE_CURVE ( 'NONE', #251, #251, #88, .T. ) ;
#389 = PERSON_AND_ORGANIZATION ( #272, #158 ) ;
#390 = DIRECTION ( 'NONE',  ( -1.000000000000000000, 0.000000000000000000, 3.483862936518518626E-15 ) ) ;
#391 = DIRECTION ( 'NONE',  ( 3.491481338843133355E-15, -0.000000000000000000, 1.000000000000000000 ) ) ;
#392 = AXIS2_PLACEMENT_3D ( 'NONE', #179, #337, #242 ) ;
#393 = FACE_OUTER_BOUND ( 'NONE', #345, .T. ) ;
#394 = DIRECTION ( 'NONE',  ( -3.491481338843133355E-15, 0.000000000000000000, -1.000000000000000000 ) ) ;
#395 = PRODUCT_DEFINITION_FORMATION_WITH_SPECIFIED_SOURCE ( 'ANY', '', #360, .NOT_KNOWN. ) ;
ENDSEC;
END-ISO-10303-21;
