ISO-10303-21;
HEADER;
FILE_DESCRIPTION (( 'STEP AP203' ),
    '1' );
FILE_NAME ('413656.step',
    '2023-09-27T08:29:44',
    ( '' ),
    ( '' ),
    'SwSTEP 2.0',
    'SolidWorks 2022',
    '' );
FILE_SCHEMA (( 'CONFIG_CONTROL_DESIGN' ));
ENDSEC;

DATA;
#1 = CONICAL_SURFACE ( 'NONE', #129, 2.999999999999995115, 0.7853981633974450594 ) ;
#2 = DIRECTION ( 'NONE',  ( 1.000000000000000000, 0.000000000000000000, -3.477065396680855865E-15 ) ) ;
#3 = APPLICATION_PROTOCOL_DEFINITION ( 'international standard', 'config_control_design', 1994, #203 ) ;
#4 = VERTEX_POINT ( 'NONE', #131 ) ;
#5 = AXIS2_PLACEMENT_3D ( 'NONE', #188, #152, #28 ) ;
#6 = DIRECTION ( 'NONE',  ( -3.491481338843133355E-15, 0.000000000000000000, -1.000000000000000000 ) ) ;
#7 = EDGE_CURVE ( 'NONE', #4, #4, #171, .T. ) ;
#8 = CARTESIAN_POINT ( 'NONE',  ( 2.291284628615796404E-15, 0.000000000000000000, 0.6562499999999971134 ) ) ;
#9 =( NAMED_UNIT ( * ) PLANE_ANGLE_UNIT ( ) SI_UNIT ( $, .RADIAN. ) );
#10 = APPROVAL_DATE_TIME ( #287, #263 ) ;
#11 = ORIENTED_EDGE ( 'NONE', *, *, #185, .T. ) ;
#12 = UNCERTAINTY_MEASURE_WITH_UNIT (LENGTH_MEASURE( 1.000000000000000082E-05 ), #93, 'distance_accuracy_value', 'NONE');
#13 = AXIS2_PLACEMENT_3D ( 'NONE', #272, #275, #22 ) ;
#14 = ORIENTED_EDGE ( 'NONE', *, *, #223, .F. ) ;
#15 = PERSON_AND_ORGANIZATION ( #116, #91 ) ;
#16 = ORIENTED_EDGE ( 'NONE', *, *, #297, .T. ) ;
#17 = APPROVAL_STATUS ( 'not_yet_approved' ) ;
#18 = ORIENTED_EDGE ( 'NONE', *, *, #325, .T. ) ;
#19 = APPLICATION_PROTOCOL_DEFINITION ( 'international standard', 'config_control_design', 1994, #191 ) ;
#20 = AXIS2_PLACEMENT_3D ( 'NONE', #302, #23, #343 ) ;
#21 = FACE_BOUND ( 'NONE', #355, .T. ) ;
#22 = DIRECTION ( 'NONE',  ( 1.000000000000000000, 0.000000000000000000, -2.891205793294683355E-15 ) ) ;
#23 = DIRECTION ( 'NONE',  ( 3.491481338843133355E-15, -0.000000000000000000, 1.000000000000000000 ) ) ;
#24 = ADVANCED_FACE ( 'NONE', ( #86, #217 ), #79, .T. ) ;
#25 = FACE_OUTER_BOUND ( 'NONE', #145, .T. ) ;
#26 = AXIS2_PLACEMENT_3D ( 'NONE', #360, #395, #248 ) ;
#27 = CARTESIAN_POINT ( 'NONE',  ( 1.990144363140586139E-13, 0.000000000000000000, 57.00000000000000000 ) ) ;
#28 = DIRECTION ( 'NONE',  ( -1.000000000000000000, 0.000000000000000000, 3.491481338843133355E-15 ) ) ;
#29 = DIRECTION ( 'NONE',  ( 3.491481338843133355E-15, -0.000000000000000000, 1.000000000000000000 ) ) ;
#30 = ADVANCED_FACE ( 'NONE', ( #189, #273 ), #1, .T. ) ;
#31 = CONICAL_SURFACE ( 'NONE', #49, 1.371987298107778752, 1.047197551196598964 ) ;
#32 = DIRECTION ( 'NONE',  ( 0.000000000000000000, 0.000000000000000000, 1.000000000000000000 ) ) ;
#33 = VERTEX_POINT ( 'NONE', #225 ) ;
#34 = CC_DESIGN_DATE_AND_TIME_ASSIGNMENT ( #175, #229, ( #284 ) ) ;
#35 = CARTESIAN_POINT ( 'NONE',  ( 1.371987298107783859, 0.000000000000000000, 1.499999999999996669 ) ) ;
#36 = CONICAL_SURFACE ( 'NONE', #195, 1.804999999999999716, 1.047197551196598964 ) ;
#37 = CARTESIAN_POINT ( 'NONE',  ( 0.000000000000000000, 0.000000000000000000, 0.000000000000000000 ) ) ;
#38 = DIRECTION ( 'NONE',  ( 3.491481338843133355E-15, -0.000000000000000000, 1.000000000000000000 ) ) ;
#39 = EDGE_LOOP ( 'NONE', ( #140 ) ) ;
#40 = COORDINATED_UNIVERSAL_TIME_OFFSET ( 1, 0, .AHEAD. ) ;
#41 = DIRECTION ( 'NONE',  ( 1.000000000000000000, 0.000000000000000000, -4.625929269271493211E-15 ) ) ;
#42 = ORIENTED_EDGE ( 'NONE', *, *, #346, .F. ) ;
#43 = CALENDAR_DATE ( 2023, 27, 9 ) ;
#44 = PRODUCT_DEFINITION_FORMATION_WITH_SPECIFIED_SOURCE ( 'ANY', '', #106, .NOT_KNOWN. ) ;
#45 = PERSON_AND_ORGANIZATION_ROLE ( 'design_supplier' ) ;
#46 = EDGE_LOOP ( 'NONE', ( #201 ) ) ;
#47 = ADVANCED_FACE ( 'NONE', ( #334, #21 ), #31, .T. ) ;
#48 = ORIENTED_EDGE ( 'NONE', *, *, #281, .F. ) ;
#49 = AXIS2_PLACEMENT_3D ( 'NONE', #336, #58, #304 ) ;
#50 = CYLINDRICAL_SURFACE ( 'NONE', #20, 1.804999999999999716 ) ;
#51 = FACE_BOUND ( 'NONE', #202, .T. ) ;
#52 = DIRECTION ( 'NONE',  ( -3.491481338843133355E-15, 0.000000000000000000, -1.000000000000000000 ) ) ;
#53 = CC_DESIGN_PERSON_AND_ORGANIZATION_ASSIGNMENT ( #294, #354, ( #227 ) ) ;
#54 = CARTESIAN_POINT ( 'NONE',  ( 1.969195475107527212E-13, 0.000000000000000000, 56.39999999999999858 ) ) ;
#55 = CARTESIAN_POINT ( 'NONE',  ( 1.990144363140586139E-13, 0.000000000000000000, 57.00000000000000000 ) ) ;
#56 = FACE_OUTER_BOUND ( 'NONE', #233, .T. ) ;
#57 = CC_DESIGN_APPROVAL ( #60, ( #44 ) ) ;
#58 = DIRECTION ( 'NONE',  ( 3.491481338843133355E-15, -0.000000000000000000, 1.000000000000000000 ) ) ;
#59 = DIRECTION ( 'NONE',  ( 3.491481338843133355E-15, -0.000000000000000000, 1.000000000000000000 ) ) ;
#60 = APPROVAL ( #17, 'UNSPECIFIED' ) ;
#61 = VERTEX_POINT ( 'NONE', #35 ) ;
#62 = VERTEX_POINT ( 'NONE', #67 ) ;
#63 = AXIS2_PLACEMENT_3D ( 'NONE', #279, #156, #2 ) ;
#64 =( NAMED_UNIT ( * ) SI_UNIT ( $, .STERADIAN. ) SOLID_ANGLE_UNIT ( ) );
#65 = EDGE_CURVE ( 'NONE', #222, #222, #374, .T. ) ;
#66 = MANIFOLD_SOLID_BREP ( 'Corps-Déplacer/Copier1', #162 ) ;
#67 = CARTESIAN_POINT ( 'NONE',  ( 1.210000000000034825, 0.000000000000000000, 10.39999999999999680 ) ) ;
#68 = DIRECTION ( 'NONE',  ( 3.491481338843133355E-15, -0.000000000000000000, 1.000000000000000000 ) ) ;
#69 = VERTEX_POINT ( 'NONE', #97 ) ;
#70 = COORDINATED_UNIVERSAL_TIME_OFFSET ( 1, 0, .AHEAD. ) ;
#71 = CIRCLE ( 'NONE', #112, 1.244074173710928877 ) ;
#72 = EDGE_LOOP ( 'NONE', ( #389 ) ) ;
#73 = CC_DESIGN_PERSON_AND_ORGANIZATION_ASSIGNMENT ( #351, #296, ( #44 ) ) ;
#74 = ORIENTED_EDGE ( 'NONE', *, *, #297, .F. ) ;
#75 = PERSON_AND_ORGANIZATION ( #116, #91 ) ;
#76 = DIRECTION ( 'NONE',  ( 3.491481338843133355E-15, -0.000000000000000000, 1.000000000000000000 ) ) ;
#77 = CARTESIAN_POINT ( 'NONE',  ( 1.418414293905036336E-15, 0.000000000000000000, 0.4062500000000038303 ) ) ;
#78 = DATE_TIME_ROLE ( 'creation_date' ) ;
#79 = CONICAL_SURFACE ( 'NONE', #306, 1.804999999999999938, 1.047197551196611842 ) ;
#80 = AXIS2_PLACEMENT_3D ( 'NONE', #245, #122, #216 ) ;
#81 = EDGE_LOOP ( 'NONE', ( #74 ) ) ;
#82 = ADVANCED_FACE ( 'NONE', ( #180, #25 ), #329, .T. ) ;
#83 = EDGE_LOOP ( 'NONE', ( #48 ) ) ;
#84 = FACE_OUTER_BOUND ( 'NONE', #101, .T. ) ;
#85 = CIRCLE ( 'NONE', #159, 1.209999999999999964 ) ;
#86 = FACE_BOUND ( 'NONE', #230, .T. ) ;
#87 = CARTESIAN_POINT ( 'NONE',  ( 1.418414293905036336E-15, 0.000000000000000000, 0.4062500000000038303 ) ) ;
#88 = DIRECTION ( 'NONE',  ( 3.491481338843133355E-15, -0.000000000000000000, 1.000000000000000000 ) ) ;
#89 = PLANE ( 'NONE',  #5 ) ;
#90 = FACE_OUTER_BOUND ( 'NONE', #39, .T. ) ;
#91 = ORGANIZATION ( 'UNSPECIFIED', 'UNSPECIFIED', '' ) ;
#92 = EDGE_CURVE ( 'NONE', #158, #158, #85, .T. ) ;
#93 =( LENGTH_UNIT ( ) NAMED_UNIT ( * ) SI_UNIT ( .MILLI., .METRE. ) );
#94 = VERTEX_POINT ( 'NONE', #166 ) ;
#95 = EDGE_CURVE ( 'NONE', #197, #197, #71, .T. ) ;
#96 =( GEOMETRIC_REPRESENTATION_CONTEXT ( 3 ) GLOBAL_UNCERTAINTY_ASSIGNED_CONTEXT ( ( #12 ) ) GLOBAL_UNIT_ASSIGNED_CONTEXT ( ( #93, #9, #64 ) ) REPRESENTATION_CONTEXT ( 'NONE', 'WORKASPACE' ) );
#97 = CARTESIAN_POINT ( 'NONE',  ( 3.000000000000060396, 0.000000000000000000, 17.21202344313585186 ) ) ;
#98 = VERTEX_POINT ( 'NONE', #128 ) ;
#99 = PERSON_AND_ORGANIZATION_ROLE ( 'classification_officer' ) ;
#100 = DIRECTION ( 'NONE',  ( 1.000000000000000000, 0.000000000000000000, -3.491481338843133355E-15 ) ) ;
#101 = EDGE_LOOP ( 'NONE', ( #267 ) ) ;
#102 = CALENDAR_DATE ( 2023, 27, 9 ) ;
#103 = AXIS2_PLACEMENT_3D ( 'NONE', #114, #241, #182 ) ;
#104 = FACE_OUTER_BOUND ( 'NONE', #108, .T. ) ;
#105 = ORIENTED_EDGE ( 'NONE', *, *, #281, .T. ) ;
#106 = PRODUCT ( '413656', '413656', '', ( #161 ) ) ;
#107 = DIRECTION ( 'NONE',  ( 1.000000000000000000, 0.000000000000000000, -3.477065396680855865E-15 ) ) ;
#108 = EDGE_LOOP ( 'NONE', ( #298 ) ) ;
#109 = ORIENTED_EDGE ( 'NONE', *, *, #65, .F. ) ;
#110 = CC_DESIGN_PERSON_AND_ORGANIZATION_ASSIGNMENT ( #15, #99, ( #284 ) ) ;
#111 = APPROVAL_ROLE ( '' ) ;
#112 = AXIS2_PLACEMENT_3D ( 'NONE', #274, #394, #119 ) ;
#113 = ORIENTED_EDGE ( 'NONE', *, *, #185, .F. ) ;
#114 = CARTESIAN_POINT ( 'NONE',  ( 6.009545865543939745E-14, 0.000000000000000000, 17.21202344313586252 ) ) ;
#115 = DIRECTION ( 'NONE',  ( -1.000000000000000000, 0.000000000000000000, 4.625929269271493211E-15 ) ) ;
#116 = PERSON ( 'UNSPECIFIED', 'UNSPECIFIED', 'UNSPECIFIED', ('UNSPECIFIED'), ('UNSPECIFIED'), ('UNSPECIFIED') ) ;
#117 = AXIS2_PLACEMENT_3D ( 'NONE', #192, #38, #41 ) ;
#118 = DIRECTION ( 'NONE',  ( -1.000000000000000000, 0.000000000000000000, 3.483862936518518626E-15 ) ) ;
#119 = DIRECTION ( 'NONE',  ( 1.000000000000000000, 0.000000000000000000, -4.183167320648562961E-15 ) ) ;
#120 = CARTESIAN_POINT ( 'NONE',  ( 1.200196710227316047E-15, 0.000000000000000000, 0.3437499999999968359 ) ) ;
#121 = DIRECTION ( 'NONE',  ( 1.000000000000000000, 0.000000000000000000, -4.625929269271490055E-15 ) ) ;
#122 = DIRECTION ( 'NONE',  ( 3.491481338843133355E-15, -0.000000000000000000, 1.000000000000000000 ) ) ;
#123 = ADVANCED_FACE ( 'NONE', ( #149, #339 ), #246, .T. ) ;
#124 = AXIS2_PLACEMENT_3D ( 'NONE', #127, #252, #375 ) ;
#125 = PLANE ( 'NONE',  #388 ) ;
#126 = CC_DESIGN_PERSON_AND_ORGANIZATION_ASSIGNMENT ( #144, #45, ( #44 ) ) ;
#127 = CARTESIAN_POINT ( 'NONE',  ( 0.000000000000000000, 0.000000000000000000, 0.000000000000000000 ) ) ;
#128 = CARTESIAN_POINT ( 'NONE',  ( 1.371987298107780529, 0.000000000000000000, 0.6562499999999923395 ) ) ;
#129 = AXIS2_PLACEMENT_3D ( 'NONE', #54, #210, #115 ) ;
#130 = VERTEX_POINT ( 'NONE', #286 ) ;
#131 = CARTESIAN_POINT ( 'NONE',  ( 1.805000000000001492, 0.000000000000000000, 0.4062499999999975575 ) ) ;
#132 = ORIENTED_EDGE ( 'NONE', *, *, #95, .T. ) ;
#133 = CC_DESIGN_PERSON_AND_ORGANIZATION_ASSIGNMENT ( #324, #206, ( #106 ) ) ;
#134 = COORDINATED_UNIVERSAL_TIME_OFFSET ( 1, 0, .AHEAD. ) ;
#135 = EDGE_LOOP ( 'NONE', ( #357 ) ) ;
#136 = APPROVAL_STATUS ( 'not_yet_approved' ) ;
#137 = CIRCLE ( 'NONE', #342, 1.804999999999999716 ) ;
#138 = FACE_OUTER_BOUND ( 'NONE', #382, .T. ) ;
#139 = LOCAL_TIME ( 10, 29, 44.00000000000000000, #134 ) ;
#140 = ORIENTED_EDGE ( 'NONE', *, *, #346, .T. ) ;
#141 = CALENDAR_DATE ( 2023, 27, 9 ) ;
#142 = ADVANCED_FACE ( 'NONE', ( #148, #392 ), #187, .T. ) ;
#143 = ORIENTED_EDGE ( 'NONE', *, *, #289, .F. ) ;
#144 = PERSON_AND_ORGANIZATION ( #116, #91 ) ;
#145 = EDGE_LOOP ( 'NONE', ( #18 ) ) ;
#146 = DATE_AND_TIME ( #43, #293 ) ;
#147 = CIRCLE ( 'NONE', #369, 1.804999999999999716 ) ;
#148 = FACE_OUTER_BOUND ( 'NONE', #81, .T. ) ;
#149 = FACE_OUTER_BOUND ( 'NONE', #326, .T. ) ;
#150 = ADVANCED_FACE ( 'NONE', ( #215, #270 ), #308, .T. ) ;
#151 = CARTESIAN_POINT ( 'NONE',  ( 1.990144363140586139E-13, 0.000000000000000000, 57.00000000000000000 ) ) ;
#152 = DIRECTION ( 'NONE',  ( -3.491481338843133355E-15, 0.000000000000000000, -1.000000000000000000 ) ) ;
#153 = CIRCLE ( 'NONE', #323, 1.209999999999998632 ) ;
#154 = DIRECTION ( 'NONE',  ( 1.000000000000000000, 0.000000000000000000, -3.844262550641124028E-15 ) ) ;
#155 = DIRECTION ( 'NONE',  ( 3.491481338843133355E-15, -0.000000000000000000, 1.000000000000000000 ) ) ;
#156 = DIRECTION ( 'NONE',  ( 3.491481338843133355E-15, -0.000000000000000000, 1.000000000000000000 ) ) ;
#157 = DIRECTION ( 'NONE',  ( 1.000000000000000000, 0.000000000000000000, -4.183167320648562961E-15 ) ) ;
#158 = VERTEX_POINT ( 'NONE', #254 ) ;
#159 = AXIS2_PLACEMENT_3D ( 'NONE', #221, #244, #363 ) ;
#160 = DIRECTION ( 'NONE',  ( 1.000000000000000000, 0.000000000000000000, 0.000000000000000000 ) ) ;
#161 = MECHANICAL_CONTEXT ( 'NONE', #203, 'mechanical' ) ;
#162 = CLOSED_SHELL ( 'NONE', ( #333, #377, #82, #24, #198, #47, #181, #167, #142, #353, #123, #219, #359, #150, #30, #391 ) ) ;
#163 = AXIS2_PLACEMENT_3D ( 'NONE', #218, #183, #335 ) ;
#164 = LOCAL_TIME ( 10, 29, 44.00000000000000000, #70 ) ;
#165 = DIRECTION ( 'NONE',  ( 3.491481338843133355E-15, -0.000000000000000000, 1.000000000000000000 ) ) ;
#166 = CARTESIAN_POINT ( 'NONE',  ( 1.371987298107781861, 0.000000000000000000, 0.8437499999999925615 ) ) ;
#167 = ADVANCED_FACE ( 'NONE', ( #367, #90 ), #36, .T. ) ;
#168 = APPROVAL_ROLE ( '' ) ;
#169 = ORIENTED_EDGE ( 'NONE', *, *, #65, .T. ) ;
#170 = ORIENTED_EDGE ( 'NONE', *, *, #95, .F. ) ;
#171 = CIRCLE ( 'NONE', #205, 1.804999999999999938 ) ;
#172 = APPROVAL_ROLE ( '' ) ;
#173 = EDGE_CURVE ( 'NONE', #69, #69, #260, .T. ) ;
#174 = EDGE_LOOP ( 'NONE', ( #113 ) ) ;
#175 = DATE_AND_TIME ( #141, #139 ) ;
#176 = ORIENTED_EDGE ( 'NONE', *, *, #92, .T. ) ;
#177 = SECURITY_CLASSIFICATION_LEVEL ( 'unclassified' ) ;
#178 = ORIENTED_EDGE ( 'NONE', *, *, #325, .F. ) ;
#179 = DIRECTION ( 'NONE',  ( 3.491481338843133355E-15, -0.000000000000000000, 1.000000000000000000 ) ) ;
#180 = FACE_OUTER_BOUND ( 'NONE', #46, .T. ) ;
#181 = ADVANCED_FACE ( 'NONE', ( #358, #84 ), #50, .T. ) ;
#182 = DIRECTION ( 'NONE',  ( 1.000000000000000000, 0.000000000000000000, -3.469446951953614189E-15 ) ) ;
#183 = DIRECTION ( 'NONE',  ( 3.491481338843133355E-15, -0.000000000000000000, 1.000000000000000000 ) ) ;
#184 = DIRECTION ( 'NONE',  ( -3.491481338843133355E-15, 0.000000000000000000, -1.000000000000000000 ) ) ;
#185 = EDGE_CURVE ( 'NONE', #199, #199, #249, .T. ) ;
#186 = AXIS2_PLACEMENT_3D ( 'NONE', #120, #59, #277 ) ;
#187 = CYLINDRICAL_SURFACE ( 'NONE', #26, 1.371987298107778752 ) ;
#188 = CARTESIAN_POINT ( 'NONE',  ( 5.237222008264700033E-15, 1.371987298107778530, 1.500000000000000000 ) ) ;
#189 = FACE_BOUND ( 'NONE', #264, .T. ) ;
#190 = FACE_OUTER_BOUND ( 'NONE', #135, .T. ) ;
#191 = APPLICATION_CONTEXT ( 'configuration controlled 3d designs of mechanical parts and assemblies' ) ;
#192 = CARTESIAN_POINT ( 'NONE',  ( 1.969195475107527212E-13, 0.000000000000000000, 56.39999999999999858 ) ) ;
#193 = FACE_BOUND ( 'NONE', #386, .T. ) ;
#194 = CARTESIAN_POINT ( 'NONE',  ( 3.000000000000192291, 0.000000000000000000, 56.39999999999998437 ) ) ;
#195 = AXIS2_PLACEMENT_3D ( 'NONE', #331, #52, #390 ) ;
#196 = LOCAL_TIME ( 10, 29, 44.00000000000000000, #378 ) ;
#197 = VERTEX_POINT ( 'NONE', #372 ) ;
#198 = ADVANCED_FACE ( 'NONE', ( #104, #138 ), #262, .T. ) ;
#199 = VERTEX_POINT ( 'NONE', #194 ) ;
#200 = CIRCLE ( 'NONE', #186, 1.804999999999999938 ) ;
#201 = ORIENTED_EDGE ( 'NONE', *, *, #7, .F. ) ;
#202 = EDGE_LOOP ( 'NONE', ( #132 ) ) ;
#203 = APPLICATION_CONTEXT ( 'configuration controlled 3d designs of mechanical parts and assemblies' ) ;
#204 = DIRECTION ( 'NONE',  ( 3.491481338843133355E-15, -0.000000000000000000, 1.000000000000000000 ) ) ;
#205 = AXIS2_PLACEMENT_3D ( 'NONE', #77, #204, #365 ) ;
#206 = PERSON_AND_ORGANIZATION_ROLE ( 'design_owner' ) ;
#207 = CIRCLE ( 'NONE', #63, 1.371987298107778752 ) ;
#208 = EDGE_LOOP ( 'NONE', ( #236 ) ) ;
#209 = ORIENTED_EDGE ( 'NONE', *, *, #289, .T. ) ;
#210 = DIRECTION ( 'NONE',  ( -3.491481338843133355E-15, 0.000000000000000000, -1.000000000000000000 ) ) ;
#211 = DIRECTION ( 'NONE',  ( 1.000000000000000000, 0.000000000000000000, -3.477065396680857837E-15 ) ) ;
#212 = AXIS2_PLACEMENT_3D ( 'NONE', #349, #352, #100 ) ;
#213 = APPROVAL_PERSON_ORGANIZATION ( #266, #384, #111 ) ;
#214 = ADVANCED_BREP_SHAPE_REPRESENTATION ( '413656', ( #66, #283 ), #96 ) ;
#215 = FACE_OUTER_BOUND ( 'NONE', #174, .T. ) ;
#216 = DIRECTION ( 'NONE',  ( 1.000000000000000000, 0.000000000000000000, -3.477065396680856654E-15 ) ) ;
#217 = FACE_OUTER_BOUND ( 'NONE', #257, .T. ) ;
#218 = CARTESIAN_POINT ( 'NONE',  ( -1.856896473335879499E-32, 0.000000000000000000, -5.318362875601515270E-18 ) ) ;
#219 = ADVANCED_FACE ( 'NONE', ( #383, #317 ), #361, .F. ) ;
#220 = DIRECTION ( 'NONE',  ( 1.000000000000000000, 0.000000000000000000, -5.734623061080357167E-15 ) ) ;
#221 = CARTESIAN_POINT ( 'NONE',  ( 5.237222008264704766E-15, 0.000000000000000000, 1.500000000000001332 ) ) ;
#222 = VERTEX_POINT ( 'NONE', #280 ) ;
#223 = EDGE_CURVE ( 'NONE', #33, #33, #226, .T. ) ;
#224 = VERTEX_POINT ( 'NONE', #319 ) ;
#225 = CARTESIAN_POINT ( 'NONE',  ( 1.371987298107783859, 0.000000000000000000, 1.406249999999993117 ) ) ;
#226 = CIRCLE ( 'NONE', #242, 1.371987298107778752 ) ;
#227 = PRODUCT_DEFINITION ( 'UNKNOWN', '', #44, #271 ) ;
#228 = CARTESIAN_POINT ( 'NONE',  ( 1.805000000000003935, 0.000000000000000000, 1.156249999999991340 ) ) ;
#229 = DATE_TIME_ROLE ( 'classification_date' ) ;
#230 = EDGE_LOOP ( 'NONE', ( #143 ) ) ;
#231 = APPROVAL_DATE_TIME ( #237, #384 ) ;
#232 = DIRECTION ( 'NONE',  ( 1.000000000000000000, 0.000000000000000000, -5.057549667899428649E-15 ) ) ;
#233 = EDGE_LOOP ( 'NONE', ( #16 ) ) ;
#234 = APPROVAL_DATE_TIME ( #356, #60 ) ;
#235 = EDGE_LOOP ( 'NONE', ( #170 ) ) ;
#236 = ORIENTED_EDGE ( 'NONE', *, *, #310, .F. ) ;
#237 = DATE_AND_TIME ( #258, #164 ) ;
#238 = AXIS2_PLACEMENT_3D ( 'NONE', #311, #29, #157 ) ;
#239 = APPROVAL_PERSON_ORGANIZATION ( #290, #263, #172 ) ;
#240 = EDGE_LOOP ( 'NONE', ( #11 ) ) ;
#241 = DIRECTION ( 'NONE',  ( 3.491481338843133355E-15, -0.000000000000000000, 1.000000000000000000 ) ) ;
#242 = AXIS2_PLACEMENT_3D ( 'NONE', #345, #76, #107 ) ;
#243 = APPROVAL_PERSON_ORGANIZATION ( #75, #60, #168 ) ;
#244 = DIRECTION ( 'NONE',  ( 3.491481338843133355E-15, -0.000000000000000000, 1.000000000000000000 ) ) ;
#245 = CARTESIAN_POINT ( 'NONE',  ( 5.237222008264704766E-15, 0.000000000000000000, 1.500000000000001332 ) ) ;
#246 = CYLINDRICAL_SURFACE ( 'NONE', #278, 1.209999999999999298 ) ;
#247 = PLANE ( 'NONE',  #163 ) ;
#248 = DIRECTION ( 'NONE',  ( 1.000000000000000000, 0.000000000000000000, -5.057549667899427071E-15 ) ) ;
#249 = CIRCLE ( 'NONE', #117, 2.999999999999995115 ) ;
#250 = DIRECTION ( 'NONE',  ( 3.491481338843133355E-15, -0.000000000000000000, 1.000000000000000000 ) ) ;
#251 = DIRECTION ( 'NONE',  ( 1.000000000000000000, 0.000000000000000000, -2.867311530540180161E-15 ) ) ;
#252 = DIRECTION ( 'NONE',  ( 3.491481338843133355E-15, -0.000000000000000000, 1.000000000000000000 ) ) ;
#253 = CARTESIAN_POINT ( 'NONE',  ( 1.990144363140586139E-13, 2.399999999999995914, 57.00000000000000000 ) ) ;
#254 = CARTESIAN_POINT ( 'NONE',  ( 1.210000000000005071, 0.000000000000000000, 1.499999999999997113 ) ) ;
#255 = CIRCLE ( 'NONE', #80, 1.371987298107778530 ) ;
#256 = EDGE_CURVE ( 'NONE', #94, #94, #207, .T. ) ;
#257 = EDGE_LOOP ( 'NONE', ( #350 ) ) ;
#258 = CALENDAR_DATE ( 2023, 27, 9 ) ;
#259 = ORIENTED_EDGE ( 'NONE', *, *, #256, .T. ) ;
#260 = CIRCLE ( 'NONE', #103, 3.000000000000000000 ) ;
#261 = LOCAL_TIME ( 10, 29, 44.00000000000000000, #380 ) ;
#262 = CYLINDRICAL_SURFACE ( 'NONE', #330, 1.371987298107778308 ) ;
#263 = APPROVAL ( #136, 'UNSPECIFIED' ) ;
#264 = EDGE_LOOP ( 'NONE', ( #109 ) ) ;
#265 = EDGE_LOOP ( 'NONE', ( #14 ) ) ;
#266 = PERSON_AND_ORGANIZATION ( #116, #91 ) ;
#267 = ORIENTED_EDGE ( 'NONE', *, *, #310, .T. ) ;
#268 = EDGE_CURVE ( 'NONE', #62, #62, #153, .T. ) ;
#269 = AXIS2_PLACEMENT_3D ( 'NONE', #151, #301, #154 ) ;
#270 = FACE_OUTER_BOUND ( 'NONE', #320, .T. ) ;
#271 = DESIGN_CONTEXT ( 'detailed design', #191, 'design' ) ;
#272 = CARTESIAN_POINT ( 'NONE',  ( 1.990144363140586139E-13, 0.000000000000000000, 57.00000000000000000 ) ) ;
#273 = FACE_OUTER_BOUND ( 'NONE', #240, .T. ) ;
#274 = CARTESIAN_POINT ( 'NONE',  ( 3.721506779008120641E-14, 0.000000000000000000, 10.65881904510251132 ) ) ;
#275 = DIRECTION ( 'NONE',  ( 3.491481338843133355E-15, -0.000000000000000000, 1.000000000000000000 ) ) ;
#276 = CARTESIAN_POINT ( 'NONE',  ( 3.631140592396858689E-14, 0.000000000000000000, 10.40000000000000036 ) ) ;
#277 = DIRECTION ( 'NONE',  ( 1.000000000000000000, 0.000000000000000000, -3.483862936518518626E-15 ) ) ;
#278 = AXIS2_PLACEMENT_3D ( 'NONE', #55, #88, #220 ) ;
#279 = CARTESIAN_POINT ( 'NONE',  ( 2.945937379648884302E-15, 0.000000000000000000, 0.8437499999999973355 ) ) ;
#280 = CARTESIAN_POINT ( 'NONE',  ( 2.400000000000194866, 0.000000000000000000, 56.99999999999999289 ) ) ;
#281 = EDGE_CURVE ( 'NONE', #224, #224, #347, .T. ) ;
#282 = DIRECTION ( 'NONE',  ( -1.000000000000000000, 0.000000000000000000, 3.491481338843133355E-15 ) ) ;
#283 = AXIS2_PLACEMENT_3D ( 'NONE', #341, #32, #160 ) ;
#284 = SECURITY_CLASSIFICATION ( '', '', #177 ) ;
#285 = DIRECTION ( 'NONE',  ( 1.000000000000000000, 0.000000000000000000, -3.491481338843132961E-15 ) ) ;
#286 = CARTESIAN_POINT ( 'NONE',  ( 1.805000000000001270, 0.000000000000000000, 0.3437499999999905631 ) ) ;
#287 = DATE_AND_TIME ( #299, #196 ) ;
#288 = EDGE_LOOP ( 'NONE', ( #169 ) ) ;
#289 = EDGE_CURVE ( 'NONE', #98, #98, #337, .T. ) ;
#290 = PERSON_AND_ORGANIZATION ( #116, #91 ) ;
#291 = EDGE_LOOP ( 'NONE', ( #178 ) ) ;
#292 = AXIS2_PLACEMENT_3D ( 'NONE', #37, #165, #285 ) ;
#293 = LOCAL_TIME ( 10, 29, 44.00000000000000000, #40 ) ;
#294 = PERSON_AND_ORGANIZATION ( #116, #91 ) ;
#295 = EDGE_LOOP ( 'NONE', ( #385 ) ) ;
#296 = PERSON_AND_ORGANIZATION_ROLE ( 'creator' ) ;
#297 = EDGE_CURVE ( 'NONE', #61, #61, #255, .T. ) ;
#298 = ORIENTED_EDGE ( 'NONE', *, *, #256, .F. ) ;
#299 = CALENDAR_DATE ( 2023, 27, 9 ) ;
#300 = ORIENTED_EDGE ( 'NONE', *, *, #268, .F. ) ;
#301 = DIRECTION ( 'NONE',  ( 3.491481338843133355E-15, -0.000000000000000000, 1.000000000000000000 ) ) ;
#302 = CARTESIAN_POINT ( 'NONE',  ( 1.990144363140586139E-13, 0.000000000000000000, 57.00000000000000000 ) ) ;
#303 = DIRECTION ( 'NONE',  ( 1.000000000000000000, 0.000000000000000000, -3.483862936518519020E-15 ) ) ;
#304 = DIRECTION ( 'NONE',  ( 1.000000000000000000, 0.000000000000000000, -3.477065396680855865E-15 ) ) ;
#305 = FACE_BOUND ( 'NONE', #295, .T. ) ;
#306 = AXIS2_PLACEMENT_3D ( 'NONE', #87, #184, #118 ) ;
#307 = CONICAL_SURFACE ( 'NONE', #124, 1.209607534898196501, 1.047197551196603182 ) ;
#308 = CYLINDRICAL_SURFACE ( 'NONE', #315, 2.999999999999997335 ) ;
#309 = DIRECTION ( 'NONE',  ( 1.000000000000000000, 0.000000000000000000, -3.483862936518519020E-15 ) ) ;
#310 = EDGE_CURVE ( 'NONE', #316, #316, #137, .T. ) ;
#311 = CARTESIAN_POINT ( 'NONE',  ( 3.721506779008120641E-14, 0.000000000000000000, 10.65881904510251132 ) ) ;
#312 = PRODUCT_DEFINITION_SHAPE ( 'NONE', 'NONE',  #227 ) ;
#313 = CARTESIAN_POINT ( 'NONE',  ( 1.990144363140586139E-13, 0.000000000000000000, 57.00000000000000000 ) ) ;
#314 = VERTEX_POINT ( 'NONE', #228 ) ;
#315 = AXIS2_PLACEMENT_3D ( 'NONE', #27, #155, #121 ) ;
#316 = VERTEX_POINT ( 'NONE', #373 ) ;
#317 = FACE_OUTER_BOUND ( 'NONE', #322, .T. ) ;
#318 = AXIS2_PLACEMENT_3D ( 'NONE', #8, #179, #211 ) ;
#319 = CARTESIAN_POINT ( 'NONE',  ( 1.209607534898196501, 0.000000000000000000, -4.223322135421096883E-15 ) ) ;
#320 = EDGE_LOOP ( 'NONE', ( #328 ) ) ;
#321 = EDGE_LOOP ( 'NONE', ( #42 ) ) ;
#322 = EDGE_LOOP ( 'NONE', ( #348 ) ) ;
#323 = AXIS2_PLACEMENT_3D ( 'NONE', #276, #250, #251 ) ;
#324 = PERSON_AND_ORGANIZATION ( #116, #91 ) ;
#325 = EDGE_CURVE ( 'NONE', #130, #130, #200, .T. ) ;
#326 = EDGE_LOOP ( 'NONE', ( #300 ) ) ;
#327 = SHAPE_DEFINITION_REPRESENTATION ( #312, #214 ) ;
#328 = ORIENTED_EDGE ( 'NONE', *, *, #173, .T. ) ;
#329 = CYLINDRICAL_SURFACE ( 'NONE', #269, 1.804999999999999938 ) ;
#330 = AXIS2_PLACEMENT_3D ( 'NONE', #313, #68, #232 ) ;
#331 = CARTESIAN_POINT ( 'NONE',  ( 4.037025298037363870E-15, 0.000000000000000000, 1.156249999999997558 ) ) ;
#332 = DIRECTION ( 'NONE',  ( 3.491481338843133355E-15, -0.000000000000000000, 1.000000000000000000 ) ) ;
#333 = ADVANCED_FACE ( 'NONE', ( #364 ), #247, .F. ) ;
#334 = FACE_OUTER_BOUND ( 'NONE', #208, .T. ) ;
#335 = DIRECTION ( 'NONE',  ( 1.000000000000000000, 0.000000000000000000, -3.491481338843133355E-15 ) ) ;
#336 = CARTESIAN_POINT ( 'NONE',  ( 2.945937379648884302E-15, 0.000000000000000000, 0.8437499999999973355 ) ) ;
#337 = CIRCLE ( 'NONE', #318, 1.371987298107778086 ) ;
#338 = CC_DESIGN_DATE_AND_TIME_ASSIGNMENT ( #146, #78, ( #227 ) ) ;
#339 = FACE_OUTER_BOUND ( 'NONE', #379, .T. ) ;
#340 = DIRECTION ( 'NONE',  ( 3.491481338843133355E-15, -0.000000000000000000, 1.000000000000000000 ) ) ;
#341 = CARTESIAN_POINT ( 'NONE',  ( 0.000000000000000000, 0.000000000000000000, 0.000000000000000000 ) ) ;
#342 = AXIS2_PLACEMENT_3D ( 'NONE', #371, #332, #309 ) ;
#343 = DIRECTION ( 'NONE',  ( 1.000000000000000000, 0.000000000000000000, -3.844262550641124028E-15 ) ) ;
#344 = FACE_OUTER_BOUND ( 'NONE', #291, .T. ) ;
#345 = CARTESIAN_POINT ( 'NONE',  ( 4.909895632748147998E-15, 0.000000000000000000, 1.406249999999997780 ) ) ;
#346 = EDGE_CURVE ( 'NONE', #314, #314, #147, .T. ) ;
#347 = CIRCLE ( 'NONE', #292, 1.209607534898196501 ) ;
#348 = ORIENTED_EDGE ( 'NONE', *, *, #268, .T. ) ;
#349 = CARTESIAN_POINT ( 'NONE',  ( 3.631140592396858689E-14, 0.000000000000000000, 10.40000000000000036 ) ) ;
#350 = ORIENTED_EDGE ( 'NONE', *, *, #7, .T. ) ;
#351 = PERSON_AND_ORGANIZATION ( #116, #91 ) ;
#352 = DIRECTION ( 'NONE',  ( 3.491481338843133355E-15, -0.000000000000000000, 1.000000000000000000 ) ) ;
#353 = ADVANCED_FACE ( 'NONE', ( #305, #56 ), #89, .F. ) ;
#354 = PERSON_AND_ORGANIZATION_ROLE ( 'creator' ) ;
#355 = EDGE_LOOP ( 'NONE', ( #259 ) ) ;
#356 = DATE_AND_TIME ( #102, #261 ) ;
#357 = ORIENTED_EDGE ( 'NONE', *, *, #173, .F. ) ;
#358 = FACE_OUTER_BOUND ( 'NONE', #321, .T. ) ;
#359 = ADVANCED_FACE ( 'NONE', ( #190, #51 ), #393, .T. ) ;
#360 = CARTESIAN_POINT ( 'NONE',  ( 1.990144363140586139E-13, 0.000000000000000000, 57.00000000000000000 ) ) ;
#361 = TOROIDAL_SURFACE ( 'NONE', #212, 2.209999999999999076, 1.000000000000000222 ) ;
#362 = CC_DESIGN_SECURITY_CLASSIFICATION ( #284, ( #44 ) ) ;
#363 = DIRECTION ( 'NONE',  ( 1.000000000000000000, 0.000000000000000000, -3.404932442516460219E-15 ) ) ;
#364 = FACE_OUTER_BOUND ( 'NONE', #83, .T. ) ;
#365 = DIRECTION ( 'NONE',  ( 1.000000000000000000, 0.000000000000000000, -3.483862936518518626E-15 ) ) ;
#366 = PRODUCT_RELATED_PRODUCT_CATEGORY ( 'detail', '', ( #106 ) ) ;
#367 = FACE_BOUND ( 'NONE', #265, .T. ) ;
#368 = CARTESIAN_POINT ( 'NONE',  ( 4.037025298037363870E-15, 0.000000000000000000, 1.156249999999997558 ) ) ;
#369 = AXIS2_PLACEMENT_3D ( 'NONE', #368, #340, #303 ) ;
#370 = CC_DESIGN_APPROVAL ( #384, ( #284 ) ) ;
#371 = CARTESIAN_POINT ( 'NONE',  ( 3.818807714359668824E-15, 0.000000000000000000, 1.093749999999997558 ) ) ;
#372 = CARTESIAN_POINT ( 'NONE',  ( 1.244074173710966180, 0.000000000000000000, 10.65881904510250600 ) ) ;
#373 = CARTESIAN_POINT ( 'NONE',  ( 1.805000000000003713, 0.000000000000000000, 1.093749999999991118 ) ) ;
#374 = CIRCLE ( 'NONE', #13, 2.399999999999995914 ) ;
#375 = DIRECTION ( 'NONE',  ( 1.000000000000000000, 0.000000000000000000, -3.491481338843132961E-15 ) ) ;
#376 = FACE_OUTER_BOUND ( 'NONE', #288, .T. ) ;
#377 = ADVANCED_FACE ( 'NONE', ( #344, #193 ), #307, .T. ) ;
#378 = COORDINATED_UNIVERSAL_TIME_OFFSET ( 1, 0, .AHEAD. ) ;
#379 = EDGE_LOOP ( 'NONE', ( #176 ) ) ;
#380 = COORDINATED_UNIVERSAL_TIME_OFFSET ( 1, 0, .AHEAD. ) ;
#381 = CC_DESIGN_APPROVAL ( #263, ( #227 ) ) ;
#382 = EDGE_LOOP ( 'NONE', ( #209 ) ) ;
#383 = FACE_OUTER_BOUND ( 'NONE', #235, .T. ) ;
#384 = APPROVAL ( #387, 'UNSPECIFIED' ) ;
#385 = ORIENTED_EDGE ( 'NONE', *, *, #92, .F. ) ;
#386 = EDGE_LOOP ( 'NONE', ( #105 ) ) ;
#387 = APPROVAL_STATUS ( 'not_yet_approved' ) ;
#388 = AXIS2_PLACEMENT_3D ( 'NONE', #253, #6, #282 ) ;
#389 = ORIENTED_EDGE ( 'NONE', *, *, #223, .T. ) ;
#390 = DIRECTION ( 'NONE',  ( -1.000000000000000000, 0.000000000000000000, 3.483862936518519020E-15 ) ) ;
#391 = ADVANCED_FACE ( 'NONE', ( #376 ), #125, .F. ) ;
#392 = FACE_OUTER_BOUND ( 'NONE', #72, .T. ) ;
#393 = CONICAL_SURFACE ( 'NONE', #238, 1.244074173710928877, 0.2617993877991428575 ) ;
#394 = DIRECTION ( 'NONE',  ( 3.491481338843133355E-15, -0.000000000000000000, 1.000000000000000000 ) ) ;
#395 = DIRECTION ( 'NONE',  ( 3.491481338843133355E-15, -0.000000000000000000, 1.000000000000000000 ) ) ;
ENDSEC;
END-ISO-10303-21;
