ISO-10303-21;
HEADER;
FILE_DESCRIPTION (( 'STEP AP203' ),
    '1' );
FILE_NAME ('413655.step',
    '2023-09-27T05:49:02',
    ( '' ),
    ( '' ),
    'SwSTEP 2.0',
    'SolidWorks 2022',
    '' );
FILE_SCHEMA (( 'CONFIG_CONTROL_DESIGN' ));
ENDSEC;

DATA;
#1 = CARTESIAN_POINT ( 'NONE',  ( 1.210000000000005071, 0.000000000000000000, 1.499999999999997113 ) ) ;
#2 = FACE_OUTER_BOUND ( 'NONE', #116, .T. ) ;
#3 = CC_DESIGN_DATE_AND_TIME_ASSIGNMENT ( #142, #261, ( #213 ) ) ;
#4 = CARTESIAN_POINT ( 'NONE',  ( 2.291284628615796404E-15, 0.000000000000000000, 0.6562499999999971134 ) ) ;
#5 = CARTESIAN_POINT ( 'NONE',  ( 3.721506779008120641E-14, 0.000000000000000000, 10.65881904510251132 ) ) ;
#6 =( NAMED_UNIT ( * ) SI_UNIT ( $, .STERADIAN. ) SOLID_ANGLE_UNIT ( ) );
#7 =( GEOMETRIC_REPRESENTATION_CONTEXT ( 3 ) GLOBAL_UNCERTAINTY_ASSIGNED_CONTEXT ( ( #334 ) ) GLOBAL_UNIT_ASSIGNED_CONTEXT ( ( #23, #151, #6 ) ) REPRESENTATION_CONTEXT ( 'NONE', 'WORKASPACE' ) );
#8 = CARTESIAN_POINT ( 'NONE',  ( 6.009545865543939745E-14, 0.000000000000000000, 17.21202344313586252 ) ) ;
#9 = COORDINATED_UNIVERSAL_TIME_OFFSET ( 1, 0, .AHEAD. ) ;
#10 = DIRECTION ( 'NONE',  ( 1.000000000000000000, 0.000000000000000000, -4.183167320648563749E-15 ) ) ;
#11 = ADVANCED_FACE ( 'NONE', ( #271 ), #264, .F. ) ;
#12 = DIRECTION ( 'NONE',  ( 3.491481338843133355E-15, -0.000000000000000000, 1.000000000000000000 ) ) ;
#13 = AXIS2_PLACEMENT_3D ( 'NONE', #238, #138, #362 ) ;
#14 = EDGE_LOOP ( 'NONE', ( #41 ) ) ;
#15 = DIRECTION ( 'NONE',  ( 1.000000000000000000, 0.000000000000000000, -5.057549667899430226E-15 ) ) ;
#16 = APPROVAL ( #158, 'UNSPECIFIED' ) ;
#17 = ORIENTED_EDGE ( 'NONE', *, *, #66, .T. ) ;
#18 = PERSON_AND_ORGANIZATION_ROLE ( 'classification_officer' ) ;
#19 = CARTESIAN_POINT ( 'NONE',  ( 4.909895632748147998E-15, 0.000000000000000000, 1.406249999999997780 ) ) ;
#20 = EDGE_LOOP ( 'NONE', ( #50 ) ) ;
#21 = VERTEX_POINT ( 'NONE', #365 ) ;
#22 = AXIS2_PLACEMENT_3D ( 'NONE', #27, #307, #202 ) ;
#23 =( LENGTH_UNIT ( ) NAMED_UNIT ( * ) SI_UNIT ( .MILLI., .METRE. ) );
#24 = ORGANIZATION ( 'UNSPECIFIED', 'UNSPECIFIED', '' ) ;
#25 = EDGE_LOOP ( 'NONE', ( #318 ) ) ;
#26 = CARTESIAN_POINT ( 'NONE',  ( 1.418414293905012079E-15, 0.000000000000000000, 0.4062499999999968914 ) ) ;
#27 = CARTESIAN_POINT ( 'NONE',  ( 2.945937379648884302E-15, 0.000000000000000000, 0.8437499999999973355 ) ) ;
#28 = PERSON_AND_ORGANIZATION_ROLE ( 'design_supplier' ) ;
#29 = EDGE_LOOP ( 'NONE', ( #315 ) ) ;
#30 = CIRCLE ( 'NONE', #130, 3.000000000000000000 ) ;
#31 = CARTESIAN_POINT ( 'NONE',  ( 1.371987298107782971, 0.000000000000000000, 1.499999999999996669 ) ) ;
#32 = APPROVAL ( #352, 'UNSPECIFIED' ) ;
#33 = EDGE_LOOP ( 'NONE', ( #179 ) ) ;
#34 = VERTEX_POINT ( 'NONE', #147 ) ;
#35 = EDGE_LOOP ( 'NONE', ( #192 ) ) ;
#36 = DIRECTION ( 'NONE',  ( -3.491481338843133355E-15, 0.000000000000000000, -1.000000000000000000 ) ) ;
#37 = CARTESIAN_POINT ( 'NONE',  ( 0.000000000000000000, 0.000000000000000000, 0.000000000000000000 ) ) ;
#38 = CARTESIAN_POINT ( 'NONE',  ( 0.000000000000000000, 0.000000000000000000, 0.000000000000000000 ) ) ;
#39 = EDGE_LOOP ( 'NONE', ( #327 ) ) ;
#40 = CYLINDRICAL_SURFACE ( 'NONE', #44, 1.804999999999999938 ) ;
#41 = ORIENTED_EDGE ( 'NONE', *, *, #231, .F. ) ;
#42 = DIRECTION ( 'NONE',  ( 3.491481338843133355E-15, -0.000000000000000000, 1.000000000000000000 ) ) ;
#43 = CC_DESIGN_PERSON_AND_ORGANIZATION_ASSIGNMENT ( #168, #18, ( #155 ) ) ;
#44 = AXIS2_PLACEMENT_3D ( 'NONE', #341, #12, #161 ) ;
#45 = EDGE_LOOP ( 'NONE', ( #344 ) ) ;
#46 = VERTEX_POINT ( 'NONE', #31 ) ;
#47 = DIRECTION ( 'NONE',  ( 3.491481338843133355E-15, -0.000000000000000000, 1.000000000000000000 ) ) ;
#48 = PERSON_AND_ORGANIZATION ( #269, #24 ) ;
#49 = CARTESIAN_POINT ( 'NONE',  ( 1.371987298107781195, 0.000000000000000000, 0.8437499999999925615 ) ) ;
#50 = ORIENTED_EDGE ( 'NONE', *, *, #295, .T. ) ;
#51 = ORIENTED_EDGE ( 'NONE', *, *, #149, .F. ) ;
#52 = CARTESIAN_POINT ( 'NONE',  ( 3.281884856449562173E-32, 0.000000000000000000, 9.399691815442957695E-18 ) ) ;
#53 = DIRECTION ( 'NONE',  ( 3.491481338843133355E-15, -0.000000000000000000, 1.000000000000000000 ) ) ;
#54 = CARTESIAN_POINT ( 'NONE',  ( 5.237222008264704766E-15, 0.000000000000000000, 1.500000000000001332 ) ) ;
#55 = CIRCLE ( 'NONE', #337, 1.804999999999999716 ) ;
#56 = CARTESIAN_POINT ( 'NONE',  ( 1.805000000000001492, 0.000000000000000000, 0.4062499999999906186 ) ) ;
#57 = ORIENTED_EDGE ( 'NONE', *, *, #295, .F. ) ;
#58 = DIRECTION ( 'NONE',  ( -1.000000000000000000, 0.000000000000000000, 3.483862936518518626E-15 ) ) ;
#59 = EDGE_CURVE ( 'NONE', #321, #321, #99, .T. ) ;
#60 = AXIS2_PLACEMENT_3D ( 'NONE', #278, #244, #343 ) ;
#61 = DIRECTION ( 'NONE',  ( 3.491481338843133355E-15, -0.000000000000000000, 1.000000000000000000 ) ) ;
#62 = PERSON_AND_ORGANIZATION ( #269, #24 ) ;
#63 = DIRECTION ( 'NONE',  ( 3.491481338843133355E-15, -0.000000000000000000, 1.000000000000000000 ) ) ;
#64 = APPROVAL_PERSON_ORGANIZATION ( #84, #16, #279 ) ;
#65 = EDGE_LOOP ( 'NONE', ( #340 ) ) ;
#66 = EDGE_CURVE ( 'NONE', #46, #46, #355, .T. ) ;
#67 = CARTESIAN_POINT ( 'NONE',  ( 3.631140592396858689E-14, 0.000000000000000000, 10.40000000000000036 ) ) ;
#68 = FACE_OUTER_BOUND ( 'NONE', #253, .T. ) ;
#69 = COORDINATED_UNIVERSAL_TIME_OFFSET ( 1, 0, .AHEAD. ) ;
#70 = CARTESIAN_POINT ( 'NONE',  ( 1.210000000000034825, 0.000000000000000000, 10.39999999999999680 ) ) ;
#71 = DATE_TIME_ROLE ( 'classification_date' ) ;
#72 = FACE_OUTER_BOUND ( 'NONE', #105, .T. ) ;
#73 = EDGE_LOOP ( 'NONE', ( #190 ) ) ;
#74 = CALENDAR_DATE ( 2023, 27, 9 ) ;
#75 = DIRECTION ( 'NONE',  ( 3.491481338843133355E-15, -0.000000000000000000, 1.000000000000000000 ) ) ;
#76 = FACE_BOUND ( 'NONE', #234, .T. ) ;
#77 = CALENDAR_DATE ( 2023, 27, 9 ) ;
#78 = CARTESIAN_POINT ( 'NONE',  ( 1.990144363140586139E-13, 0.000000000000000000, 57.00000000000000000 ) ) ;
#79 = FACE_BOUND ( 'NONE', #222, .T. ) ;
#80 = DIRECTION ( 'NONE',  ( 3.491481338843133355E-15, -0.000000000000000000, 1.000000000000000000 ) ) ;
#81 = AXIS2_PLACEMENT_3D ( 'NONE', #254, #378, #96 ) ;
#82 = DIRECTION ( 'NONE',  ( 1.000000000000000000, 0.000000000000000000, -3.477065396680857837E-15 ) ) ;
#83 = FACE_BOUND ( 'NONE', #249, .T. ) ;
#84 = PERSON_AND_ORGANIZATION ( #269, #24 ) ;
#85 = CLOSED_SHELL ( 'NONE', ( #11, #127, #246, #174, #237, #95, #311, #336, #189, #351, #267, #91, #219, #283, #167, #120 ) ) ;
#86 = APPROVAL_PERSON_ORGANIZATION ( #391, #328, #382 ) ;
#87 = AXIS2_PLACEMENT_3D ( 'NONE', #218, #63, #156 ) ;
#88 = CIRCLE ( 'NONE', #119, 2.399999999999995026 ) ;
#89 = AXIS2_PLACEMENT_3D ( 'NONE', #274, #61, #124 ) ;
#90 = DIRECTION ( 'NONE',  ( 3.491481338843133355E-15, -0.000000000000000000, 1.000000000000000000 ) ) ;
#91 = ADVANCED_FACE ( 'NONE', ( #357, #208 ), #346, .F. ) ;
#92 = CYLINDRICAL_SURFACE ( 'NONE', #180, 1.804999999999999716 ) ;
#93 = PERSON_AND_ORGANIZATION_ROLE ( 'design_owner' ) ;
#94 = FACE_OUTER_BOUND ( 'NONE', #25, .T. ) ;
#95 = ADVANCED_FACE ( 'NONE', ( #200, #76 ), #176, .T. ) ;
#96 = DIRECTION ( 'NONE',  ( 1.000000000000000000, 0.000000000000000000, -4.625929269271494788E-15 ) ) ;
#97 = FACE_OUTER_BOUND ( 'NONE', #139, .T. ) ;
#98 = DATE_AND_TIME ( #257, #289 ) ;
#99 = CIRCLE ( 'NONE', #108, 1.804999999999999938 ) ;
#100 = AXIS2_PLACEMENT_3D ( 'NONE', #26, #36, #58 ) ;
#101 = AXIS2_PLACEMENT_3D ( 'NONE', #37, #216, #247 ) ;
#102 = CONICAL_SURFACE ( 'NONE', #89, 1.209607534898196501, 1.047197551196603182 ) ;
#103 = PERSON_AND_ORGANIZATION_ROLE ( 'creator' ) ;
#104 = CARTESIAN_POINT ( 'NONE',  ( 1.371987298107780084, 0.000000000000000000, 0.6562499999999923395 ) ) ;
#105 = EDGE_LOOP ( 'NONE', ( #17 ) ) ;
#106 = EDGE_LOOP ( 'NONE', ( #331 ) ) ;
#107 = DATE_AND_TIME ( #77, #347 ) ;
#108 = AXIS2_PLACEMENT_3D ( 'NONE', #363, #389, #394 ) ;
#109 = CC_DESIGN_PERSON_AND_ORGANIZATION_ASSIGNMENT ( #203, #28, ( #287 ) ) ;
#110 = EDGE_LOOP ( 'NONE', ( #285 ) ) ;
#111 = PERSON_AND_ORGANIZATION ( #269, #24 ) ;
#112 = CIRCLE ( 'NONE', #185, 1.371987298107778086 ) ;
#113 = DIRECTION ( 'NONE',  ( -3.491481338843133355E-15, 0.000000000000000000, -1.000000000000000000 ) ) ;
#114 = ORIENTED_EDGE ( 'NONE', *, *, #380, .T. ) ;
#115 = CARTESIAN_POINT ( 'NONE',  ( 3.818807714359668824E-15, 0.000000000000000000, 1.093749999999997558 ) ) ;
#116 = EDGE_LOOP ( 'NONE', ( #324 ) ) ;
#117 = VERTEX_POINT ( 'NONE', #181 ) ;
#118 = CC_DESIGN_APPROVAL ( #328, ( #287 ) ) ;
#119 = AXIS2_PLACEMENT_3D ( 'NONE', #145, #207, #204 ) ;
#120 = ADVANCED_FACE ( 'NONE', ( #329 ), #175, .F. ) ;
#121 = PERSON_AND_ORGANIZATION_ROLE ( 'creator' ) ;
#122 = DIRECTION ( 'NONE',  ( 3.491481338843133355E-15, -0.000000000000000000, 1.000000000000000000 ) ) ;
#123 = CIRCLE ( 'NONE', #81, 2.999999999999994227 ) ;
#124 = DIRECTION ( 'NONE',  ( 1.000000000000000000, 0.000000000000000000, -3.491481338843132961E-15 ) ) ;
#125 = CARTESIAN_POINT ( 'NONE',  ( 1.990144363140586139E-13, 0.000000000000000000, 57.00000000000000000 ) ) ;
#126 = FACE_OUTER_BOUND ( 'NONE', #143, .T. ) ;
#127 = ADVANCED_FACE ( 'NONE', ( #361, #79 ), #102, .T. ) ;
#128 = APPLICATION_CONTEXT ( 'configuration controlled 3d designs of mechanical parts and assemblies' ) ;
#129 = DIRECTION ( 'NONE',  ( 3.491481338843133355E-15, -0.000000000000000000, 1.000000000000000000 ) ) ;
#130 = AXIS2_PLACEMENT_3D ( 'NONE', #8, #281, #250 ) ;
#131 = ORIENTED_EDGE ( 'NONE', *, *, #252, .T. ) ;
#132 = FACE_OUTER_BOUND ( 'NONE', #33, .T. ) ;
#133 = DIRECTION ( 'NONE',  ( 1.000000000000000000, 0.000000000000000000, -3.477065396680857837E-15 ) ) ;
#134 = EDGE_LOOP ( 'NONE', ( #333 ) ) ;
#135 = CIRCLE ( 'NONE', #288, 1.209607534898196501 ) ;
#136 = AXIS2_PLACEMENT_3D ( 'NONE', #349, #387, #360 ) ;
#137 = SHAPE_DEFINITION_REPRESENTATION ( #221, #215 ) ;
#138 = DIRECTION ( 'NONE',  ( -3.491481338843133355E-15, 0.000000000000000000, -1.000000000000000000 ) ) ;
#139 = EDGE_LOOP ( 'NONE', ( #292 ) ) ;
#140 = CC_DESIGN_PERSON_AND_ORGANIZATION_ASSIGNMENT ( #308, #121, ( #213 ) ) ;
#141 = EDGE_LOOP ( 'NONE', ( #114 ) ) ;
#142 = DATE_AND_TIME ( #366, #171 ) ;
#143 = EDGE_LOOP ( 'NONE', ( #386 ) ) ;
#144 = CIRCLE ( 'NONE', #370, 1.371987298107778086 ) ;
#145 = CARTESIAN_POINT ( 'NONE',  ( 1.990144363140586139E-13, 0.000000000000000000, 57.00000000000000000 ) ) ;
#146 = ORIENTED_EDGE ( 'NONE', *, *, #388, .F. ) ;
#147 = CARTESIAN_POINT ( 'NONE',  ( 3.000000000000060396, 0.000000000000000000, 17.21202344313585186 ) ) ;
#148 = DIRECTION ( 'NONE',  ( -3.491481338843133355E-15, 0.000000000000000000, -1.000000000000000000 ) ) ;
#149 = EDGE_CURVE ( 'NONE', #395, #395, #367, .T. ) ;
#150 = CIRCLE ( 'NONE', #350, 1.244074173710928655 ) ;
#151 =( NAMED_UNIT ( * ) PLANE_ANGLE_UNIT ( ) SI_UNIT ( $, .RADIAN. ) );
#152 = PRODUCT_RELATED_PRODUCT_CATEGORY ( 'detail', '', ( #251 ) ) ;
#153 = CARTESIAN_POINT ( 'NONE',  ( 5.237222008264704766E-15, 0.000000000000000000, 1.500000000000001332 ) ) ;
#154 = MECHANICAL_CONTEXT ( 'NONE', #326, 'mechanical' ) ;
#155 = SECURITY_CLASSIFICATION ( '', '', #229 ) ;
#156 = DIRECTION ( 'NONE',  ( 1.000000000000000000, 0.000000000000000000, -5.057549667899430226E-15 ) ) ;
#157 = CONICAL_SURFACE ( 'NONE', #13, 1.804999999999999716, 1.047197551196599630 ) ;
#158 = APPROVAL_STATUS ( 'not_yet_approved' ) ;
#159 = DIRECTION ( 'NONE',  ( 3.491481338843133355E-15, -0.000000000000000000, 1.000000000000000000 ) ) ;
#160 = EDGE_LOOP ( 'NONE', ( #304 ) ) ;
#161 = DIRECTION ( 'NONE',  ( 1.000000000000000000, 0.000000000000000000, -3.844262550641124028E-15 ) ) ;
#162 = AXIS2_PLACEMENT_3D ( 'NONE', #182, #359, #300 ) ;
#163 = DIRECTION ( 'NONE',  ( 1.000000000000000000, 0.000000000000000000, -2.867311530540180161E-15 ) ) ;
#164 = DIRECTION ( 'NONE',  ( -1.000000000000000000, 0.000000000000000000, 4.625929269271494788E-15 ) ) ;
#165 = EDGE_LOOP ( 'NONE', ( #205 ) ) ;
#166 = CARTESIAN_POINT ( 'NONE',  ( 2.400000000000193978, 0.000000000000000000, 56.99999999999999289 ) ) ;
#167 = ADVANCED_FACE ( 'NONE', ( #83, #2 ), #286, .T. ) ;
#168 = PERSON_AND_ORGANIZATION ( #269, #24 ) ;
#169 = VERTEX_POINT ( 'NONE', #70 ) ;
#170 = CARTESIAN_POINT ( 'NONE',  ( 1.805000000000003713, 0.000000000000000000, 1.093749999999991118 ) ) ;
#171 = LOCAL_TIME ( 7, 49, 2.000000000000000000, #242 ) ;
#172 = EDGE_LOOP ( 'NONE', ( #194 ) ) ;
#173 = APPROVAL_DATE_TIME ( #98, #328 ) ;
#174 = ADVANCED_FACE ( 'NONE', ( #282, #385 ), #177, .T. ) ;
#175 = PLANE ( 'NONE',  #317 ) ;
#176 = CONICAL_SURFACE ( 'NONE', #22, 1.371987298107778086, 1.047197551196599630 ) ;
#177 = CONICAL_SURFACE ( 'NONE', #100, 1.804999999999999938, 1.047197551196600296 ) ;
#178 = VERTEX_POINT ( 'NONE', #1 ) ;
#179 = ORIENTED_EDGE ( 'NONE', *, *, #59, .F. ) ;
#180 = AXIS2_PLACEMENT_3D ( 'NONE', #78, #53, #332 ) ;
#181 = CARTESIAN_POINT ( 'NONE',  ( 1.805000000000003935, 0.000000000000000000, 1.156249999999991340 ) ) ;
#182 = CARTESIAN_POINT ( 'NONE',  ( 3.631140592396858689E-14, 0.000000000000000000, 10.40000000000000036 ) ) ;
#183 = APPROVAL_DATE_TIME ( #335, #16 ) ;
#184 = CC_DESIGN_SECURITY_CLASSIFICATION ( #155, ( #287 ) ) ;
#185 = AXIS2_PLACEMENT_3D ( 'NONE', #353, #47, #133 ) ;
#186 = CC_DESIGN_PERSON_AND_ORGANIZATION_ASSIGNMENT ( #111, #103, ( #287 ) ) ;
#187 = APPLICATION_PROTOCOL_DEFINITION ( 'international standard', 'config_control_design', 1994, #128 ) ;
#188 = FACE_OUTER_BOUND ( 'NONE', #260, .T. ) ;
#189 = ADVANCED_FACE ( 'NONE', ( #97, #339 ), #193, .T. ) ;
#190 = ORIENTED_EDGE ( 'NONE', *, *, #309, .F. ) ;
#191 = DIRECTION ( 'NONE',  ( 1.000000000000000000, 0.000000000000000000, -3.483862936518519020E-15 ) ) ;
#192 = ORIENTED_EDGE ( 'NONE', *, *, #309, .T. ) ;
#193 = CYLINDRICAL_SURFACE ( 'NONE', #87, 1.371987298107777864 ) ;
#194 = ORIENTED_EDGE ( 'NONE', *, *, #276, .F. ) ;
#195 = CYLINDRICAL_SURFACE ( 'NONE', #325, 2.999999999999997335 ) ;
#196 = CARTESIAN_POINT ( 'NONE',  ( 1.209607534898196501, 0.000000000000000000, -4.223322135421096883E-15 ) ) ;
#197 = CARTESIAN_POINT ( 'NONE',  ( 3.000000000000191402, 0.000000000000000000, 56.39999999999998437 ) ) ;
#198 = EDGE_CURVE ( 'NONE', #117, #117, #209, .T. ) ;
#199 = CC_DESIGN_APPROVAL ( #32, ( #155 ) ) ;
#200 = FACE_OUTER_BOUND ( 'NONE', #134, .T. ) ;
#201 = COORDINATED_UNIVERSAL_TIME_OFFSET ( 1, 0, .AHEAD. ) ;
#202 = DIRECTION ( 'NONE',  ( 1.000000000000000000, 0.000000000000000000, -3.477065396680857837E-15 ) ) ;
#203 = PERSON_AND_ORGANIZATION ( #269, #24 ) ;
#204 = DIRECTION ( 'NONE',  ( 1.000000000000000000, 0.000000000000000000, -2.891205793294684539E-15 ) ) ;
#205 = ORIENTED_EDGE ( 'NONE', *, *, #388, .T. ) ;
#206 = LOCAL_TIME ( 7, 49, 2.000000000000000000, #69 ) ;
#207 = DIRECTION ( 'NONE',  ( 3.491481338843133355E-15, -0.000000000000000000, 1.000000000000000000 ) ) ;
#208 = FACE_OUTER_BOUND ( 'NONE', #65, .T. ) ;
#209 = CIRCLE ( 'NONE', #310, 1.804999999999999716 ) ;
#210 = CIRCLE ( 'NONE', #233, 1.209999999999999964 ) ;
#211 = VERTEX_POINT ( 'NONE', #166 ) ;
#212 = DIRECTION ( 'NONE',  ( 1.000000000000000000, 0.000000000000000000, -3.477065396680858626E-15 ) ) ;
#213 = PRODUCT_DEFINITION ( 'UNKNOWN', '', #287, #259 ) ;
#214 = CARTESIAN_POINT ( 'NONE',  ( 1.969195475107527212E-13, 0.000000000000000000, 56.39999999999999858 ) ) ;
#215 = ADVANCED_BREP_SHAPE_REPRESENTATION ( '413655', ( #241, #101 ), #7 ) ;
#216 = DIRECTION ( 'NONE',  ( 0.000000000000000000, 0.000000000000000000, 1.000000000000000000 ) ) ;
#217 = FACE_OUTER_BOUND ( 'NONE', #172, .T. ) ;
#218 = CARTESIAN_POINT ( 'NONE',  ( 1.990144363140586139E-13, 0.000000000000000000, 57.00000000000000000 ) ) ;
#219 = ADVANCED_FACE ( 'NONE', ( #280, #345 ), #358, .T. ) ;
#220 = DIRECTION ( 'NONE',  ( 1.000000000000000000, 0.000000000000000000, -3.491481338843132961E-15 ) ) ;
#221 = PRODUCT_DEFINITION_SHAPE ( 'NONE', 'NONE',  #213 ) ;
#222 = EDGE_LOOP ( 'NONE', ( #298 ) ) ;
#223 = CYLINDRICAL_SURFACE ( 'NONE', #60, 1.209999999999999298 ) ;
#224 = CC_DESIGN_DATE_AND_TIME_ASSIGNMENT ( #322, #71, ( #155 ) ) ;
#225 = DIRECTION ( 'NONE',  ( 3.491481338843133355E-15, -0.000000000000000000, 1.000000000000000000 ) ) ;
#226 = APPROVAL_ROLE ( '' ) ;
#227 = PLANE ( 'NONE',  #291 ) ;
#228 = CC_DESIGN_APPROVAL ( #16, ( #213 ) ) ;
#229 = SECURITY_CLASSIFICATION_LEVEL ( 'unclassified' ) ;
#230 = DIRECTION ( 'NONE',  ( 1.000000000000000000, 0.000000000000000000, -3.483862936518519020E-15 ) ) ;
#231 = EDGE_CURVE ( 'NONE', #306, #306, #135, .T. ) ;
#232 = DIRECTION ( 'NONE',  ( 1.000000000000000000, 0.000000000000000000, -3.477065396680858626E-15 ) ) ;
#233 = AXIS2_PLACEMENT_3D ( 'NONE', #153, #122, #275 ) ;
#234 = EDGE_LOOP ( 'NONE', ( #239 ) ) ;
#235 = DIRECTION ( 'NONE',  ( 3.491481338843133355E-15, -0.000000000000000000, 1.000000000000000000 ) ) ;
#236 = EDGE_LOOP ( 'NONE', ( #146 ) ) ;
#237 = ADVANCED_FACE ( 'NONE', ( #126, #188 ), #248, .T. ) ;
#238 = CARTESIAN_POINT ( 'NONE',  ( 4.037025298037363870E-15, 0.000000000000000000, 1.156249999999997558 ) ) ;
#239 = ORIENTED_EDGE ( 'NONE', *, *, #356, .T. ) ;
#240 = VERTEX_POINT ( 'NONE', #323 ) ;
#241 = MANIFOLD_SOLID_BREP ( 'Corps-Déplacer/Copier1', #85 ) ;
#242 = COORDINATED_UNIVERSAL_TIME_OFFSET ( 1, 0, .AHEAD. ) ;
#243 = APPLICATION_PROTOCOL_DEFINITION ( 'international standard', 'config_control_design', 1994, #326 ) ;
#244 = DIRECTION ( 'NONE',  ( 3.491481338843133355E-15, -0.000000000000000000, 1.000000000000000000 ) ) ;
#245 = FACE_OUTER_BOUND ( 'NONE', #160, .T. ) ;
#246 = ADVANCED_FACE ( 'NONE', ( #132, #94 ), #40, .T. ) ;
#247 = DIRECTION ( 'NONE',  ( 1.000000000000000000, 0.000000000000000000, 0.000000000000000000 ) ) ;
#248 = CYLINDRICAL_SURFACE ( 'NONE', #319, 1.371987298107777864 ) ;
#249 = EDGE_LOOP ( 'NONE', ( #256 ) ) ;
#250 = DIRECTION ( 'NONE',  ( 1.000000000000000000, 0.000000000000000000, -3.469446951953614189E-15 ) ) ;
#251 = PRODUCT ( '413655', '413655', '', ( #154 ) ) ;
#252 = EDGE_CURVE ( 'NONE', #34, #34, #30, .T. ) ;
#253 = EDGE_LOOP ( 'NONE', ( #131 ) ) ;
#254 = CARTESIAN_POINT ( 'NONE',  ( 1.969195475107527212E-13, 0.000000000000000000, 56.39999999999999858 ) ) ;
#255 = VERTEX_POINT ( 'NONE', #293 ) ;
#256 = ORIENTED_EDGE ( 'NONE', *, *, #380, .F. ) ;
#257 = CALENDAR_DATE ( 2023, 27, 9 ) ;
#258 = FACE_OUTER_BOUND ( 'NONE', #45, .T. ) ;
#259 = DESIGN_CONTEXT ( 'detailed design', #128, 'design' ) ;
#260 = EDGE_LOOP ( 'NONE', ( #302 ) ) ;
#261 = DATE_TIME_ROLE ( 'creation_date' ) ;
#262 = CARTESIAN_POINT ( 'NONE',  ( 5.237222008264698455E-15, 1.371987298107777642, 1.499999999999999556 ) ) ;
#263 = EDGE_CURVE ( 'NONE', #272, #272, #123, .T. ) ;
#264 = PLANE ( 'NONE',  #376 ) ;
#265 = EDGE_LOOP ( 'NONE', ( #57 ) ) ;
#266 = COORDINATED_UNIVERSAL_TIME_OFFSET ( 1, 0, .AHEAD. ) ;
#267 = ADVANCED_FACE ( 'NONE', ( #217, #316 ), #223, .T. ) ;
#268 = CARTESIAN_POINT ( 'NONE',  ( 1.990144363140586139E-13, 2.399999999999995026, 57.00000000000000000 ) ) ;
#269 = PERSON ( 'UNSPECIFIED', 'UNSPECIFIED', 'UNSPECIFIED', ('UNSPECIFIED'), ('UNSPECIFIED'), ('UNSPECIFIED') ) ;
#270 = DIRECTION ( 'NONE',  ( -1.000000000000000000, 0.000000000000000000, 3.491481338843133355E-15 ) ) ;
#271 = FACE_OUTER_BOUND ( 'NONE', #14, .T. ) ;
#272 = VERTEX_POINT ( 'NONE', #197 ) ;
#273 = DIRECTION ( 'NONE',  ( -1.000000000000000000, 0.000000000000000000, 3.491481338843133355E-15 ) ) ;
#274 = CARTESIAN_POINT ( 'NONE',  ( 0.000000000000000000, 0.000000000000000000, 0.000000000000000000 ) ) ;
#275 = DIRECTION ( 'NONE',  ( 1.000000000000000000, 0.000000000000000000, -3.404932442516460219E-15 ) ) ;
#276 = EDGE_CURVE ( 'NONE', #169, #169, #277, .T. ) ;
#277 = CIRCLE ( 'NONE', #384, 1.209999999999998632 ) ;
#278 = CARTESIAN_POINT ( 'NONE',  ( 1.990144363140586139E-13, 0.000000000000000000, 57.00000000000000000 ) ) ;
#279 = APPROVAL_ROLE ( '' ) ;
#280 = FACE_OUTER_BOUND ( 'NONE', #110, .T. ) ;
#281 = DIRECTION ( 'NONE',  ( 3.491481338843133355E-15, -0.000000000000000000, 1.000000000000000000 ) ) ;
#282 = FACE_BOUND ( 'NONE', #354, .T. ) ;
#283 = ADVANCED_FACE ( 'NONE', ( #379, #68 ), #195, .T. ) ;
#284 = AXIS2_PLACEMENT_3D ( 'NONE', #54, #80, #232 ) ;
#285 = ORIENTED_EDGE ( 'NONE', *, *, #252, .F. ) ;
#286 = CONICAL_SURFACE ( 'NONE', #392, 2.999999999999994227, 0.7853981633974450594 ) ;
#287 = PRODUCT_DEFINITION_FORMATION_WITH_SPECIFIED_SOURCE ( 'ANY', '', #251, .NOT_KNOWN. ) ;
#288 = AXIS2_PLACEMENT_3D ( 'NONE', #38, #159, #220 ) ;
#289 = LOCAL_TIME ( 7, 49, 2.000000000000000000, #266 ) ;
#290 = CARTESIAN_POINT ( 'NONE',  ( 4.037025298037363870E-15, 0.000000000000000000, 1.156249999999997558 ) ) ;
#291 = AXIS2_PLACEMENT_3D ( 'NONE', #262, #113, #270 ) ;
#292 = ORIENTED_EDGE ( 'NONE', *, *, #66, .F. ) ;
#293 = CARTESIAN_POINT ( 'NONE',  ( 1.371987298107783193, 0.000000000000000000, 1.406249999999993117 ) ) ;
#294 = VERTEX_POINT ( 'NONE', #49 ) ;
#295 = EDGE_CURVE ( 'NONE', #178, #178, #210, .T. ) ;
#296 = APPROVAL_DATE_TIME ( #107, #32 ) ;
#297 = LOCAL_TIME ( 7, 49, 2.000000000000000000, #9 ) ;
#298 = ORIENTED_EDGE ( 'NONE', *, *, #231, .T. ) ;
#299 = APPROVAL_STATUS ( 'not_yet_approved' ) ;
#300 = DIRECTION ( 'NONE',  ( 1.000000000000000000, 0.000000000000000000, -3.491481338843133355E-15 ) ) ;
#301 = AXIS2_PLACEMENT_3D ( 'NONE', #4, #372, #212 ) ;
#302 = ORIENTED_EDGE ( 'NONE', *, *, #149, .T. ) ;
#303 = VERTEX_POINT ( 'NONE', #170 ) ;
#304 = ORIENTED_EDGE ( 'NONE', *, *, #198, .F. ) ;
#305 = DIRECTION ( 'NONE',  ( -3.491481338843133355E-15, 0.000000000000000000, -1.000000000000000000 ) ) ;
#306 = VERTEX_POINT ( 'NONE', #196 ) ;
#307 = DIRECTION ( 'NONE',  ( 3.491481338843133355E-15, -0.000000000000000000, 1.000000000000000000 ) ) ;
#308 = PERSON_AND_ORGANIZATION ( #269, #24 ) ;
#309 = EDGE_CURVE ( 'NONE', #240, #240, #150, .T. ) ;
#310 = AXIS2_PLACEMENT_3D ( 'NONE', #290, #225, #191 ) ;
#311 = ADVANCED_FACE ( 'NONE', ( #245, #373 ), #92, .T. ) ;
#312 = CARTESIAN_POINT ( 'NONE',  ( 3.721506779008120641E-14, 0.000000000000000000, 10.65881904510251132 ) ) ;
#313 = EDGE_LOOP ( 'NONE', ( #342 ) ) ;
#314 = DIRECTION ( 'NONE',  ( 3.491481338843133355E-15, -0.000000000000000000, 1.000000000000000000 ) ) ;
#315 = ORIENTED_EDGE ( 'NONE', *, *, #263, .F. ) ;
#316 = FACE_OUTER_BOUND ( 'NONE', #20, .T. ) ;
#317 = AXIS2_PLACEMENT_3D ( 'NONE', #268, #148, #273 ) ;
#318 = ORIENTED_EDGE ( 'NONE', *, *, #368, .T. ) ;
#319 = AXIS2_PLACEMENT_3D ( 'NONE', #375, #314, #15 ) ;
#320 = DIRECTION ( 'NONE',  ( 3.491481338843133355E-15, -0.000000000000000000, 1.000000000000000000 ) ) ;
#321 = VERTEX_POINT ( 'NONE', #56 ) ;
#322 = DATE_AND_TIME ( #74, #206 ) ;
#323 = CARTESIAN_POINT ( 'NONE',  ( 1.244074173710965958, 0.000000000000000000, 10.65881904510250600 ) ) ;
#324 = ORIENTED_EDGE ( 'NONE', *, *, #263, .T. ) ;
#325 = AXIS2_PLACEMENT_3D ( 'NONE', #125, #320, #371 ) ;
#326 = APPLICATION_CONTEXT ( 'configuration controlled 3d designs of mechanical parts and assemblies' ) ;
#327 = ORIENTED_EDGE ( 'NONE', *, *, #59, .T. ) ;
#328 = APPROVAL ( #299, 'UNSPECIFIED' ) ;
#329 = FACE_OUTER_BOUND ( 'NONE', #141, .T. ) ;
#330 = DIRECTION ( 'NONE',  ( 3.491481338843133355E-15, -0.000000000000000000, 1.000000000000000000 ) ) ;
#331 = ORIENTED_EDGE ( 'NONE', *, *, #368, .F. ) ;
#332 = DIRECTION ( 'NONE',  ( 1.000000000000000000, 0.000000000000000000, -3.844262550641124028E-15 ) ) ;
#333 = ORIENTED_EDGE ( 'NONE', *, *, #364, .F. ) ;
#334 = UNCERTAINTY_MEASURE_WITH_UNIT (LENGTH_MEASURE( 1.000000000000000082E-05 ), #23, 'distance_accuracy_value', 'NONE');
#335 = DATE_AND_TIME ( #374, #297 ) ;
#336 = ADVANCED_FACE ( 'NONE', ( #381, #258 ), #157, .T. ) ;
#337 = AXIS2_PLACEMENT_3D ( 'NONE', #115, #235, #230 ) ;
#338 = DIRECTION ( 'NONE',  ( 1.000000000000000000, 0.000000000000000000, -4.183167320648563749E-15 ) ) ;
#339 = FACE_OUTER_BOUND ( 'NONE', #165, .T. ) ;
#340 = ORIENTED_EDGE ( 'NONE', *, *, #276, .T. ) ;
#341 = CARTESIAN_POINT ( 'NONE',  ( 1.990144363140586139E-13, 0.000000000000000000, 57.00000000000000000 ) ) ;
#342 = ORIENTED_EDGE ( 'NONE', *, *, #364, .T. ) ;
#343 = DIRECTION ( 'NONE',  ( 1.000000000000000000, 0.000000000000000000, -5.734623061080357167E-15 ) ) ;
#344 = ORIENTED_EDGE ( 'NONE', *, *, #198, .T. ) ;
#345 = FACE_BOUND ( 'NONE', #35, .T. ) ;
#346 = TOROIDAL_SURFACE ( 'NONE', #162, 2.209999999999999076, 1.000000000000000000 ) ;
#347 = LOCAL_TIME ( 7, 49, 2.000000000000000000, #201 ) ;
#348 = AXIS2_PLACEMENT_3D ( 'NONE', #312, #129, #10 ) ;
#349 = CARTESIAN_POINT ( 'NONE',  ( 1.200196710227316047E-15, 0.000000000000000000, 0.3437499999999968359 ) ) ;
#350 = AXIS2_PLACEMENT_3D ( 'NONE', #5, #90, #338 ) ;
#351 = ADVANCED_FACE ( 'NONE', ( #383, #72 ), #227, .F. ) ;
#352 = APPROVAL_STATUS ( 'not_yet_approved' ) ;
#353 = CARTESIAN_POINT ( 'NONE',  ( 2.945937379648884302E-15, 0.000000000000000000, 0.8437499999999973355 ) ) ;
#354 = EDGE_LOOP ( 'NONE', ( #51 ) ) ;
#355 = CIRCLE ( 'NONE', #284, 1.371987298107777642 ) ;
#356 = EDGE_CURVE ( 'NONE', #294, #294, #112, .T. ) ;
#357 = FACE_OUTER_BOUND ( 'NONE', #73, .T. ) ;
#358 = CONICAL_SURFACE ( 'NONE', #348, 1.244074173710928655, 0.2617993877991428575 ) ;
#359 = DIRECTION ( 'NONE',  ( 3.491481338843133355E-15, -0.000000000000000000, 1.000000000000000000 ) ) ;
#360 = DIRECTION ( 'NONE',  ( 1.000000000000000000, 0.000000000000000000, -3.483862936518518626E-15 ) ) ;
#361 = FACE_OUTER_BOUND ( 'NONE', #106, .T. ) ;
#362 = DIRECTION ( 'NONE',  ( -1.000000000000000000, 0.000000000000000000, 3.483862936518519020E-15 ) ) ;
#363 = CARTESIAN_POINT ( 'NONE',  ( 1.418414293905012079E-15, 0.000000000000000000, 0.4062499999999968914 ) ) ;
#364 = EDGE_CURVE ( 'NONE', #303, #303, #55, .T. ) ;
#365 = CARTESIAN_POINT ( 'NONE',  ( 1.805000000000001270, 0.000000000000000000, 0.3437499999999905631 ) ) ;
#366 = CALENDAR_DATE ( 2023, 27, 9 ) ;
#367 = CIRCLE ( 'NONE', #301, 1.371987298107777642 ) ;
#368 = EDGE_CURVE ( 'NONE', #21, #21, #393, .T. ) ;
#369 = APPROVAL_PERSON_ORGANIZATION ( #48, #32, #226 ) ;
#370 = AXIS2_PLACEMENT_3D ( 'NONE', #19, #330, #82 ) ;
#371 = DIRECTION ( 'NONE',  ( 1.000000000000000000, 0.000000000000000000, -4.625929269271490055E-15 ) ) ;
#372 = DIRECTION ( 'NONE',  ( 3.491481338843133355E-15, -0.000000000000000000, 1.000000000000000000 ) ) ;
#373 = FACE_OUTER_BOUND ( 'NONE', #313, .T. ) ;
#374 = CALENDAR_DATE ( 2023, 27, 9 ) ;
#375 = CARTESIAN_POINT ( 'NONE',  ( 1.990144363140586139E-13, 0.000000000000000000, 57.00000000000000000 ) ) ;
#376 = AXIS2_PLACEMENT_3D ( 'NONE', #52, #75, #390 ) ;
#377 = CC_DESIGN_PERSON_AND_ORGANIZATION_ASSIGNMENT ( #62, #93, ( #251 ) ) ;
#378 = DIRECTION ( 'NONE',  ( 3.491481338843133355E-15, -0.000000000000000000, 1.000000000000000000 ) ) ;
#379 = FACE_OUTER_BOUND ( 'NONE', #29, .T. ) ;
#380 = EDGE_CURVE ( 'NONE', #211, #211, #88, .T. ) ;
#381 = FACE_BOUND ( 'NONE', #236, .T. ) ;
#382 = APPROVAL_ROLE ( '' ) ;
#383 = FACE_BOUND ( 'NONE', #265, .T. ) ;
#384 = AXIS2_PLACEMENT_3D ( 'NONE', #67, #42, #163 ) ;
#385 = FACE_OUTER_BOUND ( 'NONE', #39, .T. ) ;
#386 = ORIENTED_EDGE ( 'NONE', *, *, #356, .F. ) ;
#387 = DIRECTION ( 'NONE',  ( 3.491481338843133355E-15, -0.000000000000000000, 1.000000000000000000 ) ) ;
#388 = EDGE_CURVE ( 'NONE', #255, #255, #144, .T. ) ;
#389 = DIRECTION ( 'NONE',  ( 3.491481338843133355E-15, -0.000000000000000000, 1.000000000000000000 ) ) ;
#390 = DIRECTION ( 'NONE',  ( 1.000000000000000000, 0.000000000000000000, -3.491481338843133355E-15 ) ) ;
#391 = PERSON_AND_ORGANIZATION ( #269, #24 ) ;
#392 = AXIS2_PLACEMENT_3D ( 'NONE', #214, #305, #164 ) ;
#393 = CIRCLE ( 'NONE', #136, 1.804999999999999938 ) ;
#394 = DIRECTION ( 'NONE',  ( 1.000000000000000000, 0.000000000000000000, -3.483862936518518626E-15 ) ) ;
#395 = VERTEX_POINT ( 'NONE', #104 ) ;
ENDSEC;
END-ISO-10303-21;
