ISO-10303-21;
HEADER;
FILE_DESCRIPTION (( 'STEP AP203' ),
    '1' );
FILE_NAME ('41320.step',
    '2021-10-06T08:24:55',
    ( '' ),
    ( '' ),
    'SwSTEP 2.0',
    'SolidWorks 2019',
    '' );
FILE_SCHEMA (( 'CONFIG_CONTROL_DESIGN' ));
ENDSEC;

DATA;
#1 = DIRECTION ( 'NONE',  ( 3.491481338843133355E-15, -1.224646799147353207E-16, 1.000000000000000000 ) ) ;
#2 = CC_DESIGN_DATE_AND_TIME_ASSIGNMENT ( #70, #171, ( #151 ) ) ;
#3 = COORDINATED_UNIVERSAL_TIME_OFFSET ( 1, 0, .AHEAD. ) ;
#4 = LOCAL_TIME ( 10, 24, 55.00000000000000000, #186 ) ;
#5 = PERSON_AND_ORGANIZATION ( #83, #162 ) ;
#6 = ADVANCED_FACE ( 'NONE', ( #40, #172 ), #164, .T. ) ;
#7 = COORDINATED_UNIVERSAL_TIME_OFFSET ( 1, 0, .AHEAD. ) ;
#8 = AXIS2_PLACEMENT_3D ( 'NONE', #31, #1, #146 ) ;
#9 = AXIS2_PLACEMENT_3D ( 'NONE', #187, #77, #199 ) ;
#10 = COORDINATED_UNIVERSAL_TIME_OFFSET ( 1, 0, .AHEAD. ) ;
#11 = FACE_OUTER_BOUND ( 'NONE', #119, .T. ) ;
#12 = CARTESIAN_POINT ( 'NONE',  ( 1.360670191324864128E-15, 0.6749999999999963807, 0.3897114317029998776 ) ) ;
#13 = AXIS2_PLACEMENT_3D ( 'NONE', #176, #123, #95 ) ;
#14 = DIRECTION ( 'NONE',  ( -3.491481338843133355E-15, 1.224646799147353207E-16, -1.000000000000000000 ) ) ;
#15 = CARTESIAN_POINT ( 'NONE',  ( 0.0000000000000000000, 0.0000000000000000000, 0.0000000000000000000 ) ) ;
#16 = APPROVAL ( #109, 'UNSPECIFIED' ) ;
#17 = CC_DESIGN_APPROVAL ( #62, ( #175 ) ) ;
#18 = EDGE_CURVE ( 'NONE', #69, #69, #56, .T. ) ;
#19 = DESIGN_CONTEXT ( 'detailed design', #116, 'design' ) ;
#20 = PERSON_AND_ORGANIZATION ( #83, #162 ) ;
#21 = DATE_TIME_ROLE ( 'classification_date' ) ;
#22 = PRODUCT_DEFINITION_SHAPE ( 'NONE', 'NONE',  #151 ) ;
#23 = AXIS2_PLACEMENT_3D ( 'NONE', #106, #74, #60 ) ;
#24 = FACE_OUTER_BOUND ( 'NONE', #81, .T. ) ;
#25 = APPROVAL_STATUS ( 'not_yet_approved' ) ;
#26 = PLANE ( 'NONE',  #166 ) ;
#27 = CYLINDRICAL_SURFACE ( 'NONE', #61, 0.6749999999999968248 ) ;
#28 = CLOSED_SHELL ( 'NONE', ( #47, #71, #6, #189 ) ) ;
#29 = FACE_OUTER_BOUND ( 'NONE', #65, .T. ) ;
#30 = CC_DESIGN_PERSON_AND_ORGANIZATION_ASSIGNMENT ( #92, #67, ( #175 ) ) ;
#31 = CARTESIAN_POINT ( 'NONE',  ( 2.793185071074506684E-14, 5.061689266483735215E-33, 8.000000000000000000 ) ) ;
#32 = AXIS2_PLACEMENT_3D ( 'NONE', #103, #174, #170 ) ;
#33 = APPLICATION_CONTEXT ( 'configuration controlled 3d designs of mechanical parts and assemblies' ) ;
#34 = ORIENTED_EDGE ( 'NONE', *, *, #42, .T. ) ;
#35 = LOCAL_TIME ( 10, 24, 55.00000000000000000, #7 ) ;
#36 = CC_DESIGN_PERSON_AND_ORGANIZATION_ASSIGNMENT ( #126, #86, ( #151 ) ) ;
#37 = PRODUCT ( '41320', '41320', '', ( #159 ) ) ;
#38 = DATE_AND_TIME ( #193, #94 ) ;
#39 = PERSON_AND_ORGANIZATION ( #83, #162 ) ;
#40 = FACE_OUTER_BOUND ( 'NONE', #181, .T. ) ;
#41 =( NAMED_UNIT ( * ) SI_UNIT ( $, .STERADIAN. ) SOLID_ANGLE_UNIT ( ) );
#42 = EDGE_CURVE ( 'NONE', #72, #72, #110, .T. ) ;
#43 = FACE_OUTER_BOUND ( 'NONE', #191, .T. ) ;
#44 = PLANE ( 'NONE',  #23 ) ;
#45 = DIRECTION ( 'NONE',  ( -3.491481338843133355E-15, 1.224646799147353207E-16, -1.000000000000000000 ) ) ;
#46 = DIRECTION ( 'NONE',  ( -3.491481338843133355E-15, 1.224646799147353207E-16, -1.000000000000000000 ) ) ;
#47 = ADVANCED_FACE ( 'NONE', ( #24 ), #26, .F. ) ;
#48 = ORIENTED_EDGE ( 'NONE', *, *, #196, .T. ) ;
#49 = CC_DESIGN_SECURITY_CLASSIFICATION ( #138, ( #175 ) ) ;
#50 = LOCAL_TIME ( 10, 24, 55.00000000000000000, #100 ) ;
#51 = APPROVAL_PERSON_ORGANIZATION ( #147, #16, #112 ) ;
#52 = PERSON_AND_ORGANIZATION ( #83, #162 ) ;
#53 = MANIFOLD_SOLID_BREP ( 'Corps-Déplacer/Copier1[2]', #194 ) ;
#54 = DIRECTION ( 'NONE',  ( 3.491481338843133355E-15, -1.224646799147353207E-16, 1.000000000000000000 ) ) ;
#55 = DIRECTION ( 'NONE',  ( 1.000000000000000000, 0.0000000000000000000, 0.0000000000000000000 ) ) ;
#56 = CIRCLE ( 'NONE', #188, 0.6749999999999973799 ) ;
#57 = FACE_OUTER_BOUND ( 'NONE', #180, .T. ) ;
#58 =( NAMED_UNIT ( * ) PLANE_ANGLE_UNIT ( ) SI_UNIT ( $, .RADIAN. ) );
#59 = CARTESIAN_POINT ( 'NONE',  ( 2.793185071074506684E-14, 5.061689266483735215E-33, 8.000000000000000000 ) ) ;
#60 = DIRECTION ( 'NONE',  ( 4.275831445896958607E-31, 1.000000000000000000, 1.224646799147353207E-16 ) ) ;
#61 = AXIS2_PLACEMENT_3D ( 'NONE', #15, #184, #78 ) ;
#62 = APPROVAL ( #25, 'UNSPECIFIED' ) ;
#63 = APPROVAL_PERSON_ORGANIZATION ( #120, #101, #195 ) ;
#64 = LOCAL_TIME ( 10, 24, 55.00000000000000000, #3 ) ;
#65 = EDGE_LOOP ( 'NONE', ( #150 ) ) ;
#66 = ORIENTED_EDGE ( 'NONE', *, *, #18, .F. ) ;
#67 = PERSON_AND_ORGANIZATION_ROLE ( 'creator' ) ;
#68 = CALENDAR_DATE ( 2021, 6, 10 ) ;
#69 = VERTEX_POINT ( 'NONE', #140 ) ;
#70 = DATE_AND_TIME ( #107, #50 ) ;
#71 = ADVANCED_FACE ( 'NONE', ( #29, #89 ), #127, .T. ) ;
#72 = VERTEX_POINT ( 'NONE', #104 ) ;
#73 =( LENGTH_UNIT ( ) NAMED_UNIT ( * ) SI_UNIT ( .MILLI., .METRE. ) );
#74 = DIRECTION ( 'NONE',  ( -3.491481338843133355E-15, 1.224646799147353207E-16, -1.000000000000000000 ) ) ;
#75 = APPROVAL_STATUS ( 'not_yet_approved' ) ;
#76 = CC_DESIGN_APPROVAL ( #16, ( #138 ) ) ;
#77 = DIRECTION ( 'NONE',  ( 3.491481338843133355E-15, -1.224646799147353207E-16, 1.000000000000000000 ) ) ;
#78 = DIRECTION ( 'NONE',  ( 4.275831445896958607E-31, 1.000000000000000000, 1.224646799147353207E-16 ) ) ;
#79 = ORIENTED_EDGE ( 'NONE', *, *, #157, .F. ) ;
#80 = ORIENTED_EDGE ( 'NONE', *, *, #18, .T. ) ;
#81 = EDGE_LOOP ( 'NONE', ( #48 ) ) ;
#82 = EDGE_LOOP ( 'NONE', ( #136 ) ) ;
#83 = PERSON ( 'UNSPECIFIED', 'UNSPECIFIED', 'UNSPECIFIED', ('UNSPECIFIED'), ('UNSPECIFIED'), ('UNSPECIFIED') ) ;
#84 = EDGE_LOOP ( 'NONE', ( #98 ) ) ;
#85 = SECURITY_CLASSIFICATION_LEVEL ( 'unclassified' ) ;
#86 = PERSON_AND_ORGANIZATION_ROLE ( 'creator' ) ;
#87 = CC_DESIGN_DATE_AND_TIME_ASSIGNMENT ( #38, #21, ( #138 ) ) ;
#88 = CIRCLE ( 'NONE', #149, 0.6749999999999973799 ) ;
#89 = FACE_OUTER_BOUND ( 'NONE', #84, .T. ) ;
#90 = VERTEX_POINT ( 'NONE', #145 ) ;
#91 = DIRECTION ( 'NONE',  ( -4.275831445896958607E-31, -1.000000000000000000, -1.224646799147353207E-16 ) ) ;
#92 = PERSON_AND_ORGANIZATION ( #83, #162 ) ;
#93 = FACE_OUTER_BOUND ( 'NONE', #132, .T. ) ;
#94 = LOCAL_TIME ( 10, 24, 55.00000000000000000, #10 ) ;
#95 = DIRECTION ( 'NONE',  ( 0.0000000000000000000, 1.000000000000000000, 0.0000000000000000000 ) ) ;
#96 = CC_DESIGN_APPROVAL ( #101, ( #151 ) ) ;
#97 = CIRCLE ( 'NONE', #117, 0.6749999999999963807 ) ;
#98 = ORIENTED_EDGE ( 'NONE', *, *, #157, .T. ) ;
#99 = CIRCLE ( 'NONE', #13, 0.6750000000000000444 ) ;
#100 = COORDINATED_UNIVERSAL_TIME_OFFSET ( 1, 0, .AHEAD. ) ;
#101 = APPROVAL ( #75, 'UNSPECIFIED' ) ;
#102 = DATE_AND_TIME ( #68, #4 ) ;
#103 = CARTESIAN_POINT ( 'NONE',  ( 1.047444401652940007E-13, -3.673940397442059178E-15, 30.00000000000000000 ) ) ;
#104 = CARTESIAN_POINT ( 'NONE',  ( 1.047444401652940007E-13, 0.4749999999999963696, 30.00000000000000000 ) ) ;
#105 = APPROVAL_DATE_TIME ( #102, #62 ) ;
#106 = CARTESIAN_POINT ( 'NONE',  ( 1.047444401652940007E-13, 3.561929483821856396E-33, 30.00000000000000000 ) ) ;
#107 = CALENDAR_DATE ( 2021, 6, 10 ) ;
#108 = DIRECTION ( 'NONE',  ( 2.853229547240364820E-31, 1.000000000000000000, 1.606225440719274502E-16 ) ) ;
#109 = APPROVAL_STATUS ( 'not_yet_approved' ) ;
#110 = CIRCLE ( 'NONE', #32, 0.4750000000000000333 ) ;
#111 = DIRECTION ( 'NONE',  ( 4.275831445896958607E-31, 1.000000000000000000, 1.224646799147353207E-16 ) ) ;
#112 = APPROVAL_ROLE ( '' ) ;
#113 = CC_DESIGN_PERSON_AND_ORGANIZATION_ASSIGNMENT ( #52, #198, ( #37 ) ) ;
#114 = SHAPE_DEFINITION_REPRESENTATION ( #22, #168 ) ;
#115 = ORIENTED_EDGE ( 'NONE', *, *, #148, .T. ) ;
#116 = APPLICATION_CONTEXT ( 'configuration controlled 3d designs of mechanical parts and assemblies' ) ;
#117 = AXIS2_PLACEMENT_3D ( 'NONE', #197, #45, #108 ) ;
#118 = EDGE_LOOP ( 'NONE', ( #34 ) ) ;
#119 = EDGE_LOOP ( 'NONE', ( #115 ) ) ;
#120 = PERSON_AND_ORGANIZATION ( #83, #162 ) ;
#121 = DATE_AND_TIME ( #200, #35 ) ;
#122 = CARTESIAN_POINT ( 'NONE',  ( 0.0000000000000000000, 0.0000000000000000000, 0.0000000000000000000 ) ) ;
#123 = DIRECTION ( 'NONE',  ( -3.491481338843133355E-15, 1.224646799147353207E-16, -1.000000000000000000 ) ) ;
#124 = APPROVAL_ROLE ( '' ) ;
#125 = DIRECTION ( 'NONE',  ( -3.491481338843133355E-15, 1.224646799147353207E-16, -1.000000000000000000 ) ) ;
#126 = PERSON_AND_ORGANIZATION ( #83, #162 ) ;
#127 = CYLINDRICAL_SURFACE ( 'NONE', #129, 0.6749999999999987121 ) ;
#128 = CARTESIAN_POINT ( 'NONE',  ( 2.793185071074506684E-14, -9.797174393178825657E-16, 8.000000000000000000 ) ) ;
#129 = AXIS2_PLACEMENT_3D ( 'NONE', #122, #14, #111 ) ;
#130 = CC_DESIGN_PERSON_AND_ORGANIZATION_ASSIGNMENT ( #5, #137, ( #138 ) ) ;
#131 = CALENDAR_DATE ( 2021, 6, 10 ) ;
#132 = EDGE_LOOP ( 'NONE', ( #66 ) ) ;
#133 = ADVANCED_FACE ( 'NONE', ( #11 ), #201, .T. ) ;
#134 = AXIS2_PLACEMENT_3D ( 'NONE', #152, #142, #55 ) ;
#135 = APPROVAL_PERSON_ORGANIZATION ( #39, #62, #124 ) ;
#136 = ORIENTED_EDGE ( 'NONE', *, *, #148, .F. ) ;
#137 = PERSON_AND_ORGANIZATION_ROLE ( 'classification_officer' ) ;
#138 = SECURITY_CLASSIFICATION ( '', '', #85 ) ;
#139 = APPLICATION_PROTOCOL_DEFINITION ( 'international standard', 'config_control_design', 1994, #116 ) ;
#140 = CARTESIAN_POINT ( 'NONE',  ( 2.793185071074506684E-14, 0.6749999999999963807, 8.000000000000000000 ) ) ;
#141 = APPLICATION_PROTOCOL_DEFINITION ( 'international standard', 'config_control_design', 1994, #33 ) ;
#142 = DIRECTION ( 'NONE',  ( 0.0000000000000000000, 0.0000000000000000000, 1.000000000000000000 ) ) ;
#143 = DIRECTION ( 'NONE',  ( 0.0000000000000000000, 1.000000000000000000, 0.0000000000000000000 ) ) ;
#144 = AXIS2_PLACEMENT_3D ( 'NONE', #173, #125, #143 ) ;
#145 = CARTESIAN_POINT ( 'NONE',  ( 1.040461438975253740E-13, 0.6749999999999963807, 29.80000000000000071 ) ) ;
#146 = DIRECTION ( 'NONE',  ( -4.275831445896958607E-31, -1.000000000000000000, -1.224646799147353207E-16 ) ) ;
#147 = PERSON_AND_ORGANIZATION ( #83, #162 ) ;
#148 = EDGE_CURVE ( 'NONE', #158, #158, #97, .T. ) ;
#149 = AXIS2_PLACEMENT_3D ( 'NONE', #128, #161, #155 ) ;
#150 = ORIENTED_EDGE ( 'NONE', *, *, #196, .F. ) ;
#151 = PRODUCT_DEFINITION ( 'UNKNOWN', '', #175, #19 ) ;
#152 = CARTESIAN_POINT ( 'NONE',  ( 0.0000000000000000000, 0.0000000000000000000, 0.0000000000000000000 ) ) ;
#153 = CARTESIAN_POINT ( 'NONE',  ( 2.793185071074506684E-14, 0.6749999999999963807, 8.000000000000000000 ) ) ;
#154 = APPROVAL_DATE_TIME ( #121, #101 ) ;
#155 = DIRECTION ( 'NONE',  ( 0.0000000000000000000, 1.000000000000000000, 0.0000000000000000000 ) ) ;
#156 = VERTEX_POINT ( 'NONE', #153 ) ;
#157 = EDGE_CURVE ( 'NONE', #90, #90, #99, .T. ) ;
#158 = VERTEX_POINT ( 'NONE', #12 ) ;
#159 = MECHANICAL_CONTEXT ( 'NONE', #33, 'mechanical' ) ;
#160 = DIRECTION ( 'NONE',  ( 0.0000000000000000000, 1.000000000000000000, 0.0000000000000000000 ) ) ;
#161 = DIRECTION ( 'NONE',  ( -3.491481338843133355E-15, 1.224646799147353207E-16, -1.000000000000000000 ) ) ;
#162 = ORGANIZATION ( 'UNSPECIFIED', 'UNSPECIFIED', '' ) ;
#163 = UNCERTAINTY_MEASURE_WITH_UNIT (LENGTH_MEASURE( 1.000000000000000082E-05 ), #73, 'distance_accuracy_value', 'NONE');
#164 = CONICAL_SURFACE ( 'NONE', #144, 0.4750000000000000333, 0.7853981633974512766 ) ;
#165 = CC_DESIGN_PERSON_AND_ORGANIZATION_ASSIGNMENT ( #20, #167, ( #175 ) ) ;
#166 = AXIS2_PLACEMENT_3D ( 'NONE', #59, #54, #91 ) ;
#167 = PERSON_AND_ORGANIZATION_ROLE ( 'design_supplier' ) ;
#168 = ADVANCED_BREP_SHAPE_REPRESENTATION ( '41320', ( #192, #53, #134 ), #182 ) ;
#169 = ADVANCED_FACE ( 'NONE', ( #202, #57 ), #27, .T. ) ;
#170 = DIRECTION ( 'NONE',  ( 0.0000000000000000000, 1.000000000000000000, 0.0000000000000000000 ) ) ;
#171 = DATE_TIME_ROLE ( 'creation_date' ) ;
#172 = FACE_BOUND ( 'NONE', #118, .T. ) ;
#173 = CARTESIAN_POINT ( 'NONE',  ( 1.047444401652940007E-13, -3.673940397442059178E-15, 30.00000000000000000 ) ) ;
#174 = DIRECTION ( 'NONE',  ( -3.491481338843133355E-15, 1.224646799147353207E-16, -1.000000000000000000 ) ) ;
#175 = PRODUCT_DEFINITION_FORMATION_WITH_SPECIFIED_SOURCE ( 'ANY', '', #37, .NOT_KNOWN. ) ;
#176 = CARTESIAN_POINT ( 'NONE',  ( 1.040461438975253740E-13, -3.649447461459112464E-15, 29.80000000000000071 ) ) ;
#177 = APPROVAL_DATE_TIME ( #190, #16 ) ;
#178 = ORIENTED_EDGE ( 'NONE', *, *, #42, .F. ) ;
#179 = ADVANCED_FACE ( 'NONE', ( #93 ), #185, .T. ) ;
#180 = EDGE_LOOP ( 'NONE', ( #80 ) ) ;
#181 = EDGE_LOOP ( 'NONE', ( #79 ) ) ;
#182 =( GEOMETRIC_REPRESENTATION_CONTEXT ( 3 ) GLOBAL_UNCERTAINTY_ASSIGNED_CONTEXT ( ( #163 ) ) GLOBAL_UNIT_ASSIGNED_CONTEXT ( ( #73, #58, #41 ) ) REPRESENTATION_CONTEXT ( 'NONE', 'WORKASPACE' ) );
#183 = PRODUCT_RELATED_PRODUCT_CATEGORY ( 'detail', '', ( #37 ) ) ;
#184 = DIRECTION ( 'NONE',  ( -3.491481338843133355E-15, 1.224646799147353207E-16, -1.000000000000000000 ) ) ;
#185 = PLANE ( 'NONE',  #8 ) ;
#186 = COORDINATED_UNIVERSAL_TIME_OFFSET ( 1, 0, .AHEAD. ) ;
#187 = CARTESIAN_POINT ( 'NONE',  ( 1.360670191324863931E-15, -4.772588574262110452E-17, 0.3897114317029997665 ) ) ;
#188 = AXIS2_PLACEMENT_3D ( 'NONE', #203, #46, #160 ) ;
#189 = ADVANCED_FACE ( 'NONE', ( #43 ), #44, .F. ) ;
#190 = DATE_AND_TIME ( #131, #64 ) ;
#191 = EDGE_LOOP ( 'NONE', ( #178 ) ) ;
#192 = MANIFOLD_SOLID_BREP ( 'Corps-Déplacer/Copier1[1]', #28 ) ;
#193 = CALENDAR_DATE ( 2021, 6, 10 ) ;
#194 = CLOSED_SHELL ( 'NONE', ( #133, #169, #179 ) ) ;
#195 = APPROVAL_ROLE ( '' ) ;
#196 = EDGE_CURVE ( 'NONE', #156, #156, #88, .T. ) ;
#197 = CARTESIAN_POINT ( 'NONE',  ( 1.360670191324863931E-15, -4.772588574262110452E-17, 0.3897114317029997665 ) ) ;
#198 = PERSON_AND_ORGANIZATION_ROLE ( 'design_owner' ) ;
#199 = DIRECTION ( 'NONE',  ( -2.853229547240364820E-31, -1.000000000000000000, -1.606225440719274502E-16 ) ) ;
#200 = CALENDAR_DATE ( 2021, 6, 10 ) ;
#201 = CONICAL_SURFACE ( 'NONE', #9, 0.6749999999999963807, 1.047197551196592746 ) ;
#202 = FACE_OUTER_BOUND ( 'NONE', #82, .T. ) ;
#203 = CARTESIAN_POINT ( 'NONE',  ( 2.793185071074506684E-14, -9.797174393178825657E-16, 8.000000000000000000 ) ) ;
ENDSEC;
END-ISO-10303-21;
