ISO-10303-21;
HEADER;
FILE_DESCRIPTION (( 'STEP AP203' ),
    '1' );
FILE_NAME ('41319.step',
    '2021-10-06T08:24:53',
    ( '' ),
    ( '' ),
    'SwSTEP 2.0',
    'SolidWorks 2019',
    '' );
FILE_SCHEMA (( 'CONFIG_CONTROL_DESIGN' ));
ENDSEC;

DATA;
#1 = PERSON_AND_ORGANIZATION ( #87, #102 ) ;
#2 = CONICAL_SURFACE ( 'NONE', #48, 0.4250000000000000444, 0.7853981633974512766 ) ;
#3 = CARTESIAN_POINT ( 'NONE',  ( 1.047444401652940007E-13, 0.4249999999999963252, 30.00000000000000000 ) ) ;
#4 = DATE_AND_TIME ( #96, #79 ) ;
#5 = CARTESIAN_POINT ( 'NONE',  ( 2.793185071074506684E-14, 0.6249999999999963363, 8.000000000000000000 ) ) ;
#6 =( NAMED_UNIT ( * ) SI_UNIT ( $, .STERADIAN. ) SOLID_ANGLE_UNIT ( ) );
#7 = PRODUCT_RELATED_PRODUCT_CATEGORY ( 'detail', '', ( #60 ) ) ;
#8 = DIRECTION ( 'NONE',  ( -3.491481338843133355E-15, 1.224646799147353207E-16, -1.000000000000000000 ) ) ;
#9 = APPLICATION_CONTEXT ( 'configuration controlled 3d designs of mechanical parts and assemblies' ) ;
#10 = CYLINDRICAL_SURFACE ( 'NONE', #13, 0.6249999999999985567 ) ;
#11 = ORIENTED_EDGE ( 'NONE', *, *, #187, .F. ) ;
#12 = DIRECTION ( 'NONE',  ( -3.491481338843133355E-15, 1.224646799147353207E-16, -1.000000000000000000 ) ) ;
#13 = AXIS2_PLACEMENT_3D ( 'NONE', #82, #8, #26 ) ;
#14 = ORIENTED_EDGE ( 'NONE', *, *, #195, .F. ) ;
#15 = CARTESIAN_POINT ( 'NONE',  ( 1.259879806782280650E-15, -4.419063494687135770E-17, 0.3608439182435180803 ) ) ;
#16 = CC_DESIGN_APPROVAL ( #166, ( #22 ) ) ;
#17 = PRODUCT_DEFINITION_FORMATION_WITH_SPECIFIED_SOURCE ( 'ANY', '', #60, .NOT_KNOWN. ) ;
#18 = CALENDAR_DATE ( 2021, 6, 10 ) ;
#19 = VERTEX_POINT ( 'NONE', #97 ) ;
#20 = AXIS2_PLACEMENT_3D ( 'NONE', #74, #202, #28 ) ;
#21 = CC_DESIGN_DATE_AND_TIME_ASSIGNMENT ( #4, #174, ( #157 ) ) ;
#22 = SECURITY_CLASSIFICATION ( '', '', #63 ) ;
#23 = COORDINATED_UNIVERSAL_TIME_OFFSET ( 1, 0, .AHEAD. ) ;
#24 = CARTESIAN_POINT ( 'NONE',  ( 2.793185071074506684E-14, 4.686749320818270129E-33, 8.000000000000000000 ) ) ;
#25 = DIRECTION ( 'NONE',  ( -3.081487911019595319E-31, -1.000000000000000000, -8.673617379884086008E-17 ) ) ;
#26 = DIRECTION ( 'NONE',  ( 4.275831445896958607E-31, 1.000000000000000000, 1.224646799147353207E-16 ) ) ;
#27 = ADVANCED_FACE ( 'NONE', ( #39, #58 ), #45, .T. ) ;
#28 = DIRECTION ( 'NONE',  ( 0.0000000000000000000, 1.000000000000000000, 0.0000000000000000000 ) ) ;
#29 = ADVANCED_FACE ( 'NONE', ( #167, #137 ), #2, .T. ) ;
#30 = AXIS2_PLACEMENT_3D ( 'NONE', #37, #134, #84 ) ;
#31 = PERSON_AND_ORGANIZATION ( #87, #102 ) ;
#32 = PERSON_AND_ORGANIZATION_ROLE ( 'creator' ) ;
#33 =( GEOMETRIC_REPRESENTATION_CONTEXT ( 3 ) GLOBAL_UNCERTAINTY_ASSIGNED_CONTEXT ( ( #89 ) ) GLOBAL_UNIT_ASSIGNED_CONTEXT ( ( #143, #192, #6 ) ) REPRESENTATION_CONTEXT ( 'NONE', 'WORKASPACE' ) );
#34 = CC_DESIGN_PERSON_AND_ORGANIZATION_ASSIGNMENT ( #129, #185, ( #22 ) ) ;
#35 = VERTEX_POINT ( 'NONE', #191 ) ;
#36 = PRODUCT_DEFINITION_SHAPE ( 'NONE', 'NONE',  #157 ) ;
#37 = CARTESIAN_POINT ( 'NONE',  ( 2.793185071074506684E-14, 4.686749320818270129E-33, 8.000000000000000000 ) ) ;
#38 = AXIS2_PLACEMENT_3D ( 'NONE', #52, #124, #119 ) ;
#39 = FACE_OUTER_BOUND ( 'NONE', #122, .T. ) ;
#40 = FACE_OUTER_BOUND ( 'NONE', #149, .T. ) ;
#41 = APPROVAL_DATE_TIME ( #106, #166 ) ;
#42 = EDGE_LOOP ( 'NONE', ( #14 ) ) ;
#43 = CC_DESIGN_DATE_AND_TIME_ASSIGNMENT ( #118, #201, ( #22 ) ) ;
#44 = LOCAL_TIME ( 10, 24, 53.00000000000000000, #78 ) ;
#45 = CYLINDRICAL_SURFACE ( 'NONE', #142, 0.6249999999999968914 ) ;
#46 = CARTESIAN_POINT ( 'NONE',  ( 2.793185071074506684E-14, 0.6249999999999963363, 8.000000000000000000 ) ) ;
#47 = CLOSED_SHELL ( 'NONE', ( #125, #27, #93 ) ) ;
#48 = AXIS2_PLACEMENT_3D ( 'NONE', #105, #12, #168 ) ;
#49 = MANIFOLD_SOLID_BREP ( 'Corps-Déplacer/Copier1[1]', #92 ) ;
#50 = APPROVAL_DATE_TIME ( #194, #126 ) ;
#51 = EDGE_LOOP ( 'NONE', ( #147 ) ) ;
#52 = CARTESIAN_POINT ( 'NONE',  ( 1.047444401652940007E-13, 3.186989538156391994E-33, 30.00000000000000000 ) ) ;
#53 = ORIENTED_EDGE ( 'NONE', *, *, #98, .F. ) ;
#54 = APPROVAL_ROLE ( '' ) ;
#55 = ORIENTED_EDGE ( 'NONE', *, *, #133, .T. ) ;
#56 = CALENDAR_DATE ( 2021, 6, 10 ) ;
#57 = CC_DESIGN_PERSON_AND_ORGANIZATION_ASSIGNMENT ( #81, #131, ( #60 ) ) ;
#58 = FACE_OUTER_BOUND ( 'NONE', #181, .T. ) ;
#59 = DIRECTION ( 'NONE',  ( 3.081487911019595319E-31, 1.000000000000000000, 8.673617379884086008E-17 ) ) ;
#60 = PRODUCT ( '41319', '41319', '', ( #176 ) ) ;
#61 = ADVANCED_FACE ( 'NONE', ( #85, #196 ), #10, .T. ) ;
#62 = ADVANCED_FACE ( 'NONE', ( #150 ), #67, .F. ) ;
#63 = SECURITY_CLASSIFICATION_LEVEL ( 'unclassified' ) ;
#64 = DIRECTION ( 'NONE',  ( 1.000000000000000000, 0.0000000000000000000, 0.0000000000000000000 ) ) ;
#65 = DATE_AND_TIME ( #162, #44 ) ;
#66 = DIRECTION ( 'NONE',  ( 0.0000000000000000000, 0.0000000000000000000, 1.000000000000000000 ) ) ;
#67 = PLANE ( 'NONE',  #38 ) ;
#68 = APPROVAL_STATUS ( 'not_yet_approved' ) ;
#69 = ORIENTED_EDGE ( 'NONE', *, *, #153, .T. ) ;
#70 = CARTESIAN_POINT ( 'NONE',  ( 2.793185071074506684E-14, -9.797174393178825657E-16, 8.000000000000000000 ) ) ;
#71 = DIRECTION ( 'NONE',  ( 4.275831445896958607E-31, 1.000000000000000000, 1.224646799147352961E-16 ) ) ;
#72 = CC_DESIGN_PERSON_AND_ORGANIZATION_ASSIGNMENT ( #132, #77, ( #17 ) ) ;
#73 = ORIENTED_EDGE ( 'NONE', *, *, #187, .T. ) ;
#74 = CARTESIAN_POINT ( 'NONE',  ( 1.040461438975253740E-13, -3.649447461459112464E-15, 29.80000000000000071 ) ) ;
#75 = CIRCLE ( 'NONE', #113, 0.4250000000000000444 ) ;
#76 = CC_DESIGN_PERSON_AND_ORGANIZATION_ASSIGNMENT ( #80, #100, ( #17 ) ) ;
#77 = PERSON_AND_ORGANIZATION_ROLE ( 'design_supplier' ) ;
#78 = COORDINATED_UNIVERSAL_TIME_OFFSET ( 1, 0, .AHEAD. ) ;
#79 = LOCAL_TIME ( 10, 24, 53.00000000000000000, #112 ) ;
#80 = PERSON_AND_ORGANIZATION ( #87, #102 ) ;
#81 = PERSON_AND_ORGANIZATION ( #87, #102 ) ;
#82 = CARTESIAN_POINT ( 'NONE',  ( 0.0000000000000000000, 0.0000000000000000000, 0.0000000000000000000 ) ) ;
#83 = CIRCLE ( 'NONE', #170, 0.6249999999999963363 ) ;
#84 = DIRECTION ( 'NONE',  ( -4.275831445896958607E-31, -1.000000000000000000, -1.224646799147353207E-16 ) ) ;
#85 = FACE_OUTER_BOUND ( 'NONE', #51, .T. ) ;
#86 = PERSON_AND_ORGANIZATION ( #87, #102 ) ;
#87 = PERSON ( 'UNSPECIFIED', 'UNSPECIFIED', 'UNSPECIFIED', ('UNSPECIFIED'), ('UNSPECIFIED'), ('UNSPECIFIED') ) ;
#88 = DIRECTION ( 'NONE',  ( 3.491481338843133355E-15, -1.224646799147353207E-16, 1.000000000000000000 ) ) ;
#89 = UNCERTAINTY_MEASURE_WITH_UNIT (LENGTH_MEASURE( 1.000000000000000082E-05 ), #143, 'distance_accuracy_value', 'NONE');
#90 = ORIENTED_EDGE ( 'NONE', *, *, #153, .F. ) ;
#91 = DIRECTION ( 'NONE',  ( 0.0000000000000000000, 1.000000000000000000, 0.0000000000000000000 ) ) ;
#92 = CLOSED_SHELL ( 'NONE', ( #99, #61, #29, #62 ) ) ;
#93 = ADVANCED_FACE ( 'NONE', ( #40 ), #179, .T. ) ;
#94 = APPLICATION_PROTOCOL_DEFINITION ( 'international standard', 'config_control_design', 1994, #169 ) ;
#95 = APPROVAL_STATUS ( 'not_yet_approved' ) ;
#96 = CALENDAR_DATE ( 2021, 6, 10 ) ;
#97 = CARTESIAN_POINT ( 'NONE',  ( 1.040461438975253740E-13, 0.6249999999999963363, 29.80000000000000071 ) ) ;
#98 = EDGE_CURVE ( 'NONE', #127, #127, #175, .T. ) ;
#99 = ADVANCED_FACE ( 'NONE', ( #101 ), #164, .F. ) ;
#100 = PERSON_AND_ORGANIZATION_ROLE ( 'creator' ) ;
#101 = FACE_OUTER_BOUND ( 'NONE', #138, .T. ) ;
#102 = ORGANIZATION ( 'UNSPECIFIED', 'UNSPECIFIED', '' ) ;
#103 = DIRECTION ( 'NONE',  ( -3.491481338843133355E-15, 1.224646799147353207E-16, -1.000000000000000000 ) ) ;
#104 = DIRECTION ( 'NONE',  ( -3.491481338843133355E-15, 1.224646799147353207E-16, -1.000000000000000000 ) ) ;
#105 = CARTESIAN_POINT ( 'NONE',  ( 1.047444401652940007E-13, -3.673940397442059178E-15, 30.00000000000000000 ) ) ;
#106 = DATE_AND_TIME ( #56, #189 ) ;
#107 = AXIS2_PLACEMENT_3D ( 'NONE', #145, #66, #64 ) ;
#108 = CARTESIAN_POINT ( 'NONE',  ( 0.0000000000000000000, 0.0000000000000000000, 0.0000000000000000000 ) ) ;
#109 = DIRECTION ( 'NONE',  ( 0.0000000000000000000, 1.000000000000000000, 0.0000000000000000000 ) ) ;
#110 = CC_DESIGN_APPROVAL ( #126, ( #157 ) ) ;
#111 = APPROVAL_STATUS ( 'not_yet_approved' ) ;
#112 = COORDINATED_UNIVERSAL_TIME_OFFSET ( 1, 0, .AHEAD. ) ;
#113 = AXIS2_PLACEMENT_3D ( 'NONE', #154, #140, #91 ) ;
#114 = APPLICATION_PROTOCOL_DEFINITION ( 'international standard', 'config_control_design', 1994, #9 ) ;
#115 = CC_DESIGN_PERSON_AND_ORGANIZATION_ASSIGNMENT ( #158, #32, ( #157 ) ) ;
#116 = COORDINATED_UNIVERSAL_TIME_OFFSET ( 1, 0, .AHEAD. ) ;
#117 = EDGE_LOOP ( 'NONE', ( #73 ) ) ;
#118 = DATE_AND_TIME ( #180, #144 ) ;
#119 = DIRECTION ( 'NONE',  ( 4.275831445896958607E-31, 1.000000000000000000, 1.224646799147353207E-16 ) ) ;
#120 = CONICAL_SURFACE ( 'NONE', #160, 0.6249999999999963363, 1.047197551196592746 ) ;
#121 = APPROVAL_PERSON_ORGANIZATION ( #31, #139, #159 ) ;
#122 = EDGE_LOOP ( 'NONE', ( #11 ) ) ;
#123 = SHAPE_DEFINITION_REPRESENTATION ( #36, #161 ) ;
#124 = DIRECTION ( 'NONE',  ( -3.491481338843133355E-15, 1.224646799147353207E-16, -1.000000000000000000 ) ) ;
#125 = ADVANCED_FACE ( 'NONE', ( #136 ), #120, .T. ) ;
#126 = APPROVAL ( #111, 'UNSPECIFIED' ) ;
#127 = VERTEX_POINT ( 'NONE', #46 ) ;
#128 = AXIS2_PLACEMENT_3D ( 'NONE', #70, #103, #182 ) ;
#129 = PERSON_AND_ORGANIZATION ( #87, #102 ) ;
#130 = CIRCLE ( 'NONE', #171, 0.6249999999999973355 ) ;
#131 = PERSON_AND_ORGANIZATION_ROLE ( 'design_owner' ) ;
#132 = PERSON_AND_ORGANIZATION ( #87, #102 ) ;
#133 = EDGE_CURVE ( 'NONE', #146, #146, #130, .T. ) ;
#134 = DIRECTION ( 'NONE',  ( 3.491481338843133355E-15, -1.224646799147353207E-16, 1.000000000000000000 ) ) ;
#135 = ORIENTED_EDGE ( 'NONE', *, *, #98, .T. ) ;
#136 = FACE_OUTER_BOUND ( 'NONE', #117, .T. ) ;
#137 = FACE_BOUND ( 'NONE', #200, .T. ) ;
#138 = EDGE_LOOP ( 'NONE', ( #55 ) ) ;
#139 = APPROVAL ( #95, 'UNSPECIFIED' ) ;
#140 = DIRECTION ( 'NONE',  ( -3.491481338843133355E-15, 1.224646799147353207E-16, -1.000000000000000000 ) ) ;
#141 = APPROVAL_PERSON_ORGANIZATION ( #86, #166, #54 ) ;
#142 = AXIS2_PLACEMENT_3D ( 'NONE', #108, #104, #71 ) ;
#143 =( LENGTH_UNIT ( ) NAMED_UNIT ( * ) SI_UNIT ( .MILLI., .METRE. ) );
#144 = LOCAL_TIME ( 10, 24, 53.00000000000000000, #23 ) ;
#145 = CARTESIAN_POINT ( 'NONE',  ( 0.0000000000000000000, 0.0000000000000000000, 0.0000000000000000000 ) ) ;
#146 = VERTEX_POINT ( 'NONE', #5 ) ;
#147 = ORIENTED_EDGE ( 'NONE', *, *, #133, .F. ) ;
#148 = AXIS2_PLACEMENT_3D ( 'NONE', #24, #88, #163 ) ;
#149 = EDGE_LOOP ( 'NONE', ( #53 ) ) ;
#150 = FACE_OUTER_BOUND ( 'NONE', #188, .T. ) ;
#151 = CARTESIAN_POINT ( 'NONE',  ( 2.793185071074506684E-14, -9.797174393178825657E-16, 8.000000000000000000 ) ) ;
#152 = COORDINATED_UNIVERSAL_TIME_OFFSET ( 1, 0, .AHEAD. ) ;
#153 = EDGE_CURVE ( 'NONE', #172, #172, #75, .T. ) ;
#154 = CARTESIAN_POINT ( 'NONE',  ( 1.047444401652940007E-13, -3.673940397442059178E-15, 30.00000000000000000 ) ) ;
#155 = CC_DESIGN_SECURITY_CLASSIFICATION ( #22, ( #17 ) ) ;
#156 = CC_DESIGN_APPROVAL ( #139, ( #17 ) ) ;
#157 = PRODUCT_DEFINITION ( 'UNKNOWN', '', #17, #183 ) ;
#158 = PERSON_AND_ORGANIZATION ( #87, #102 ) ;
#159 = APPROVAL_ROLE ( '' ) ;
#160 = AXIS2_PLACEMENT_3D ( 'NONE', #197, #165, #25 ) ;
#161 = ADVANCED_BREP_SHAPE_REPRESENTATION ( '41319', ( #49, #190, #107 ), #33 ) ;
#162 = CALENDAR_DATE ( 2021, 6, 10 ) ;
#163 = DIRECTION ( 'NONE',  ( -4.275831445896958607E-31, -1.000000000000000000, -1.224646799147353207E-16 ) ) ;
#164 = PLANE ( 'NONE',  #148 ) ;
#165 = DIRECTION ( 'NONE',  ( 3.491481338843133355E-15, -1.224646799147353207E-16, 1.000000000000000000 ) ) ;
#166 = APPROVAL ( #68, 'UNSPECIFIED' ) ;
#167 = FACE_OUTER_BOUND ( 'NONE', #42, .T. ) ;
#168 = DIRECTION ( 'NONE',  ( 0.0000000000000000000, 1.000000000000000000, 0.0000000000000000000 ) ) ;
#169 = APPLICATION_CONTEXT ( 'configuration controlled 3d designs of mechanical parts and assemblies' ) ;
#170 = AXIS2_PLACEMENT_3D ( 'NONE', #15, #186, #59 ) ;
#171 = AXIS2_PLACEMENT_3D ( 'NONE', #151, #199, #109 ) ;
#172 = VERTEX_POINT ( 'NONE', #3 ) ;
#173 = APPROVAL_ROLE ( '' ) ;
#174 = DATE_TIME_ROLE ( 'creation_date' ) ;
#175 = CIRCLE ( 'NONE', #128, 0.6249999999999973355 ) ;
#176 = MECHANICAL_CONTEXT ( 'NONE', #9, 'mechanical' ) ;
#177 = APPROVAL_DATE_TIME ( #65, #139 ) ;
#178 = ORIENTED_EDGE ( 'NONE', *, *, #195, .T. ) ;
#179 = PLANE ( 'NONE',  #30 ) ;
#180 = CALENDAR_DATE ( 2021, 6, 10 ) ;
#181 = EDGE_LOOP ( 'NONE', ( #135 ) ) ;
#182 = DIRECTION ( 'NONE',  ( 0.0000000000000000000, 1.000000000000000000, 0.0000000000000000000 ) ) ;
#183 = DESIGN_CONTEXT ( 'detailed design', #169, 'design' ) ;
#184 = EDGE_LOOP ( 'NONE', ( #178 ) ) ;
#185 = PERSON_AND_ORGANIZATION_ROLE ( 'classification_officer' ) ;
#186 = DIRECTION ( 'NONE',  ( -3.491481338843133355E-15, 1.224646799147353207E-16, -1.000000000000000000 ) ) ;
#187 = EDGE_CURVE ( 'NONE', #35, #35, #83, .T. ) ;
#188 = EDGE_LOOP ( 'NONE', ( #90 ) ) ;
#189 = LOCAL_TIME ( 10, 24, 53.00000000000000000, #152 ) ;
#190 = MANIFOLD_SOLID_BREP ( 'Corps-Déplacer/Copier1[2]', #47 ) ;
#191 = CARTESIAN_POINT ( 'NONE',  ( 1.259879806782280848E-15, 0.6249999999999963363, 0.3608439182435181358 ) ) ;
#192 =( NAMED_UNIT ( * ) PLANE_ANGLE_UNIT ( ) SI_UNIT ( $, .RADIAN. ) );
#193 = LOCAL_TIME ( 10, 24, 53.00000000000000000, #116 ) ;
#194 = DATE_AND_TIME ( #18, #193 ) ;
#195 = EDGE_CURVE ( 'NONE', #19, #19, #203, .T. ) ;
#196 = FACE_OUTER_BOUND ( 'NONE', #184, .T. ) ;
#197 = CARTESIAN_POINT ( 'NONE',  ( 1.259879806782280650E-15, -4.419063494687135770E-17, 0.3608439182435180803 ) ) ;
#198 = APPROVAL_PERSON_ORGANIZATION ( #1, #126, #173 ) ;
#199 = DIRECTION ( 'NONE',  ( -3.491481338843133355E-15, 1.224646799147353207E-16, -1.000000000000000000 ) ) ;
#200 = EDGE_LOOP ( 'NONE', ( #69 ) ) ;
#201 = DATE_TIME_ROLE ( 'classification_date' ) ;
#202 = DIRECTION ( 'NONE',  ( -3.491481338843133355E-15, 1.224646799147353207E-16, -1.000000000000000000 ) ) ;
#203 = CIRCLE ( 'NONE', #20, 0.6250000000000000000 ) ;
ENDSEC;
END-ISO-10303-21;
