ISO-10303-21;
HEADER;
FILE_DESCRIPTION (( 'STEP AP203' ),
    '1' );
FILE_NAME ('41318.step',
    '2021-09-02T13:22:43',
    ( '' ),
    ( '' ),
    'SwSTEP 2.0',
    'SolidWorks 2019',
    '' );
FILE_SCHEMA (( 'CONFIG_CONTROL_DESIGN' ));
ENDSEC;

DATA;
#1 = VERTEX_POINT ( 'NONE', #220 ) ;
#2 = ADVANCED_FACE ( 'NONE', ( #216 ), #79, .T. ) ;
#3 = DIRECTION ( 'NONE',  ( 0.0000000000000000000, 1.000000000000000000, 0.0000000000000000000 ) ) ;
#4 = CC_DESIGN_SECURITY_CLASSIFICATION ( #150, ( #50 ) ) ;
#5 = ORIENTED_EDGE ( 'NONE', *, *, #211, .T. ) ;
#6 = CARTESIAN_POINT ( 'NONE',  ( 2.129803616694311221E-13, 7.873738858974633386E-33, 61.00000000000000000 ) ) ;
#7 = CALENDAR_DATE ( 2021, 2, 9 ) ;
#8 = DIRECTION ( 'NONE',  ( 1.903218546456022717E-15, 0.8571673007021097801, 0.5150380749100585964 ) ) ;
#9 = CARTESIAN_POINT ( 'NONE',  ( 0.0000000000000000000, 0.0000000000000000000, 0.0000000000000000000 ) ) ;
#10 = CONICAL_SURFACE ( 'NONE', #194, 1.049999999999998490, 0.7853981633974569387 ) ;
#11 = EDGE_CURVE ( 'NONE', #311, #105, #122, .T. ) ;
#12 = LOCAL_TIME ( 15, 22, 43.00000000000000000, #326 ) ;
#13 = DIRECTION ( 'NONE',  ( -3.491481338843133355E-15, 1.224646799147353454E-16, -1.000000000000000000 ) ) ;
#14 = MANIFOLD_SOLID_BREP ( 'Corps-Déplacer/Copier1[2]', #146 ) ;
#15 = APPROVAL_STATUS ( 'not_yet_approved' ) ;
#16 = DIRECTION ( 'NONE',  ( -3.491481338843133355E-15, 1.224646799147353454E-16, -1.000000000000000000 ) ) ;
#17 = DESIGN_CONTEXT ( 'detailed design', #271, 'design' ) ;
#18 = CIRCLE ( 'NONE', #201, 1.349999999999998312 ) ;
#19 = AXIS2_PLACEMENT_3D ( 'NONE', #87, #107, #264 ) ;
#20 = DATE_AND_TIME ( #48, #12 ) ;
#21 = CARTESIAN_POINT ( 'NONE',  ( 0.0000000000000000000, 0.0000000000000000000, 0.0000000000000000000 ) ) ;
#22 = CC_DESIGN_PERSON_AND_ORGANIZATION_ASSIGNMENT ( #86, #120, ( #150 ) ) ;
#23 = CARTESIAN_POINT ( 'NONE',  ( 2.832156412083633011E-15, -9.933867456648328412E-17, 0.8111618356872097868 ) ) ;
#24 = DATE_AND_TIME ( #249, #56 ) ;
#25 = CARTESIAN_POINT ( 'NONE',  ( 2.129803616694311221E-13, 1.049999999999990941, 61.00000000000000000 ) ) ;
#26 = CC_DESIGN_APPROVAL ( #139, ( #165 ) ) ;
#27 = ADVANCED_FACE ( 'NONE', ( #174 ), #70, .T. ) ;
#28 = VERTEX_POINT ( 'NONE', #219 ) ;
#29 = CYLINDRICAL_SURFACE ( 'NONE', #102, 1.349999999999993205 ) ;
#30 = DATE_AND_TIME ( #256, #91 ) ;
#31 = VECTOR ( 'NONE', #16, 1000.000000000000000 ) ;
#32 =( GEOMETRIC_REPRESENTATION_CONTEXT ( 3 ) GLOBAL_UNCERTAINTY_ASSIGNED_CONTEXT ( ( #145 ) ) GLOBAL_UNIT_ASSIGNED_CONTEXT ( ( #304, #175, #151 ) ) REPRESENTATION_CONTEXT ( 'NONE', 'WORKASPACE' ) );
#33 = ORIENTED_EDGE ( 'NONE', *, *, #322, .T. ) ;
#34 = ORIENTED_EDGE ( 'NONE', *, *, #316, .T. ) ;
#35 = LINE ( 'NONE', #261, #109 ) ;
#36 = ORIENTED_EDGE ( 'NONE', *, *, #223, .T. ) ;
#37 = CARTESIAN_POINT ( 'NONE',  ( 5.919084761483824350E-14, -1.349999999999999201, 33.00000000000000000 ) ) ;
#38 = DIRECTION ( 'NONE',  ( -3.491481338843133355E-15, 1.224646799147353454E-16, -1.000000000000000000 ) ) ;
#39 = CC_DESIGN_PERSON_AND_ORGANIZATION_ASSIGNMENT ( #276, #46, ( #165 ) ) ;
#40 = DIRECTION ( 'NONE',  ( -3.491481338843133355E-15, 1.224646799147353454E-16, -1.000000000000000000 ) ) ;
#41 = PERSON_AND_ORGANIZATION_ROLE ( 'design_supplier' ) ;
#42 = FACE_OUTER_BOUND ( 'NONE', #254, .T. ) ;
#43 = CARTESIAN_POINT ( 'NONE',  ( 1.653273178848917006E-16, -1.349999999999996536, -1.653273178848928592E-16 ) ) ;
#44 = EDGE_CURVE ( 'NONE', #158, #311, #318, .T. ) ;
#45 = CC_DESIGN_DATE_AND_TIME_ASSIGNMENT ( #24, #96, ( #165 ) ) ;
#46 = PERSON_AND_ORGANIZATION_ROLE ( 'creator' ) ;
#47 = DIRECTION ( 'NONE',  ( 4.275831445896959482E-31, 1.000000000000000000, 1.224646799147353454E-16 ) ) ;
#48 = CALENDAR_DATE ( 2021, 2, 9 ) ;
#49 = VECTOR ( 'NONE', #73, 1000.000000000000000 ) ;
#50 = PRODUCT_DEFINITION_FORMATION_WITH_SPECIFIED_SOURCE ( 'ANY', '', #255, .NOT_KNOWN. ) ;
#51 = ORIENTED_EDGE ( 'NONE', *, *, #97, .T. ) ;
#52 = CARTESIAN_POINT ( 'NONE',  ( 5.772372451960880719E-31, 1.349999999999996536, 1.653273178848922922E-16 ) ) ;
#53 = ORIENTED_EDGE ( 'NONE', *, *, #332, .F. ) ;
#54 = EDGE_CURVE ( 'NONE', #1, #311, #67, .T. ) ;
#55 = EDGE_LOOP ( 'NONE', ( #80, #229 ) ) ;
#56 = LOCAL_TIME ( 15, 22, 43.00000000000000000, #149 ) ;
#57 = EDGE_LOOP ( 'NONE', ( #312, #309, #131, #53 ) ) ;
#58 = CARTESIAN_POINT ( 'NONE',  ( 1.152188841818234133E-13, -4.041334437186266989E-15, 33.00000000000000000 ) ) ;
#59 = FACE_OUTER_BOUND ( 'NONE', #181, .T. ) ;
#60 = LOCAL_TIME ( 15, 22, 43.00000000000000000, #88 ) ;
#61 = PERSON ( 'UNSPECIFIED', 'UNSPECIFIED', 'UNSPECIFIED', ('UNSPECIFIED'), ('UNSPECIFIED'), ('UNSPECIFIED') ) ;
#62 = LINE ( 'NONE', #141, #218 ) ;
#63 = DIRECTION ( 'NONE',  ( 0.0000000000000000000, 1.000000000000000000, 0.0000000000000000000 ) ) ;
#64 = PERSON_AND_ORGANIZATION ( #61, #172 ) ;
#65 = CARTESIAN_POINT ( 'NONE',  ( 2.997483729968524515E-15, 1.349999999999990985, 0.8111618356872100088 ) ) ;
#66 = VECTOR ( 'NONE', #328, 1000.000000000000000 ) ;
#67 = LINE ( 'NONE', #170, #274 ) ;
#68 = COORDINATED_UNIVERSAL_TIME_OFFSET ( 1, 0, .AHEAD. ) ;
#69 = MECHANICAL_CONTEXT ( 'NONE', #183, 'mechanical' ) ;
#70 = CONICAL_SURFACE ( 'NONE', #90, 1.349999999999990985, 1.029744258676649649 ) ;
#71 = AXIS2_PLACEMENT_3D ( 'NONE', #127, #225, #327 ) ;
#72 = CARTESIAN_POINT ( 'NONE',  ( 2.832156412083633011E-15, -9.933867456648328412E-17, 0.8111618356872097868 ) ) ;
#73 = DIRECTION ( 'NONE',  ( -3.491481338843133355E-15, 1.224646799147353454E-16, -1.000000000000000000 ) ) ;
#74 = VERTEX_POINT ( 'NONE', #245 ) ;
#75 = PERSON_AND_ORGANIZATION ( #61, #172 ) ;
#76 = CIRCLE ( 'NONE', #265, 1.349999999999990985 ) ;
#77 = ORIENTED_EDGE ( 'NONE', *, *, #11, .F. ) ;
#78 = ORIENTED_EDGE ( 'NONE', *, *, #89, .T. ) ;
#79 = CONICAL_SURFACE ( 'NONE', #123, 1.349999999999990985, 1.029744258676649649 ) ;
#80 = ORIENTED_EDGE ( 'NONE', *, *, #310, .F. ) ;
#81 = CARTESIAN_POINT ( 'NONE',  ( 1.152188841818234133E-13, -4.041334437186266989E-15, 33.00000000000000000 ) ) ;
#82 = DIRECTION ( 'NONE',  ( -3.491481338843133355E-15, 1.224646799147353454E-16, -1.000000000000000000 ) ) ;
#83 = DIRECTION ( 'NONE',  ( 3.491481338843133355E-15, -1.224646799147353454E-16, 1.000000000000000000 ) ) ;
#84 = ADVANCED_FACE ( 'NONE', ( #119 ), #302, .T. ) ;
#85 = DIRECTION ( 'NONE',  ( -4.275831445896959482E-31, -1.000000000000000000, -1.224646799147353454E-16 ) ) ;
#86 = PERSON_AND_ORGANIZATION ( #61, #172 ) ;
#87 = CARTESIAN_POINT ( 'NONE',  ( 1.152188841818234133E-13, -4.041334437186266989E-15, 33.00000000000000000 ) ) ;
#88 = COORDINATED_UNIVERSAL_TIME_OFFSET ( 1, 0, .AHEAD. ) ;
#89 = EDGE_CURVE ( 'NONE', #306, #28, #280, .T. ) ;
#90 = AXIS2_PLACEMENT_3D ( 'NONE', #195, #299, #116 ) ;
#91 = LOCAL_TIME ( 15, 22, 43.00000000000000000, #284 ) ;
#92 = EDGE_CURVE ( 'NONE', #311, #158, #18, .T. ) ;
#93 = APPROVAL_STATUS ( 'not_yet_approved' ) ;
#94 = APPROVAL_DATE_TIME ( #20, #139 ) ;
#95 = LINE ( 'NONE', #25, #111 ) ;
#96 = DATE_TIME_ROLE ( 'creation_date' ) ;
#97 = EDGE_CURVE ( 'NONE', #1, #156, #241, .T. ) ;
#98 = DIRECTION ( 'NONE',  ( 0.0000000000000000000, 1.000000000000000000, 0.0000000000000000000 ) ) ;
#99 = ORIENTED_EDGE ( 'NONE', *, *, #143, .T. ) ;
#100 = SHAPE_DEFINITION_REPRESENTATION ( #263, #126 ) ;
#101 = AXIS2_PLACEMENT_3D ( 'NONE', #130, #253, #205 ) ;
#102 = AXIS2_PLACEMENT_3D ( 'NONE', #199, #250, #224 ) ;
#103 = EDGE_LOOP ( 'NONE', ( #282, #206, #155, #180 ) ) ;
#104 = EDGE_LOOP ( 'NONE', ( #286, #99, #260 ) ) ;
#105 = VERTEX_POINT ( 'NONE', #186 ) ;
#106 = APPROVAL_PERSON_ORGANIZATION ( #64, #243, #192 ) ;
#107 = DIRECTION ( 'NONE',  ( -3.491481338843133355E-15, 1.224646799147353454E-16, -1.000000000000000000 ) ) ;
#108 = PLANE ( 'NONE',  #269 ) ;
#109 = VECTOR ( 'NONE', #215, 1000.000000000000000 ) ;
#110 = DIRECTION ( 'NONE',  ( 4.275831445896959482E-31, 1.000000000000000000, 1.224646799147353454E-16 ) ) ;
#111 = VECTOR ( 'NONE', #125, 1000.000000000000114 ) ;
#112 = APPROVAL ( #93, 'UNSPECIFIED' ) ;
#113 = DIRECTION ( 'NONE',  ( -3.491481338843133355E-15, 1.224646799147353454E-16, -1.000000000000000000 ) ) ;
#114 = EDGE_CURVE ( 'NONE', #105, #74, #334, .T. ) ;
#115 = CALENDAR_DATE ( 2021, 2, 9 ) ;
#116 = DIRECTION ( 'NONE',  ( -2.853229547240368323E-31, -1.000000000000000000, -1.606225440719276474E-16 ) ) ;
#117 = CIRCLE ( 'NONE', #71, 1.049999999999998490 ) ;
#118 = APPROVAL_DATE_TIME ( #301, #243 ) ;
#119 = FACE_OUTER_BOUND ( 'NONE', #290, .T. ) ;
#120 = PERSON_AND_ORGANIZATION_ROLE ( 'classification_officer' ) ;
#121 = CARTESIAN_POINT ( 'NONE',  ( 1.637412280426855772E-13, -1.350000000000005862, 60.70000000000000284 ) ) ;
#122 = LINE ( 'NONE', #43, #49 ) ;
#123 = AXIS2_PLACEMENT_3D ( 'NONE', #72, #275, #198 ) ;
#124 = CC_DESIGN_APPROVAL ( #243, ( #50 ) ) ;
#125 = DIRECTION ( 'NONE',  ( -2.468850131082243650E-15, 0.7071067811865536790, -0.7071067811865413555 ) ) ;
#126 = ADVANCED_BREP_SHAPE_REPRESENTATION ( '41318', ( #236, #14, #303 ), #32 ) ;
#127 = CARTESIAN_POINT ( 'NONE',  ( 2.129803616694311221E-13, -7.470345474798856659E-15, 61.00000000000000000 ) ) ;
#128 = ADVANCED_FACE ( 'NONE', ( #314 ), #10, .T. ) ;
#129 = ORIENTED_EDGE ( 'NONE', *, *, #322, .F. ) ;
#130 = CARTESIAN_POINT ( 'NONE',  ( 2.129803616694311221E-13, -7.470345474798856659E-15, 61.00000000000000000 ) ) ;
#131 = ORIENTED_EDGE ( 'NONE', *, *, #223, .F. ) ;
#132 = APPROVAL_DATE_TIME ( #30, #112 ) ;
#133 = ORIENTED_EDGE ( 'NONE', *, *, #332, .T. ) ;
#134 = ORIENTED_EDGE ( 'NONE', *, *, #92, .F. ) ;
#135 = AXIS2_PLACEMENT_3D ( 'NONE', #23, #331, #152 ) ;
#136 = PLANE ( 'NONE',  #330 ) ;
#137 = DIRECTION ( 'NONE',  ( 4.275831445896959482E-31, 1.000000000000000000, 1.224646799147353454E-16 ) ) ;
#138 = CYLINDRICAL_SURFACE ( 'NONE', #335, 1.349999999999996536 ) ;
#139 = APPROVAL ( #148, 'UNSPECIFIED' ) ;
#140 = PERSON_AND_ORGANIZATION ( #61, #172 ) ;
#141 = CARTESIAN_POINT ( 'NONE',  ( 2.997483729968524909E-15, 1.349999999999990985, 0.8111618356872100088 ) ) ;
#142 = AXIS2_PLACEMENT_3D ( 'NONE', #238, #38, #137 ) ;
#143 = EDGE_CURVE ( 'NONE', #248, #28, #35, .T. ) ;
#144 = SECURITY_CLASSIFICATION_LEVEL ( 'unclassified' ) ;
#145 = UNCERTAINTY_MEASURE_WITH_UNIT (LENGTH_MEASURE( 1.000000000000000082E-05 ), #304, 'distance_accuracy_value', 'NONE');
#146 = CLOSED_SHELL ( 'NONE', ( #305, #27, #2, #84, #166 ) ) ;
#147 = LOCAL_TIME ( 15, 22, 43.00000000000000000, #68 ) ;
#148 = APPROVAL_STATUS ( 'not_yet_approved' ) ;
#149 = COORDINATED_UNIVERSAL_TIME_OFFSET ( 1, 0, .AHEAD. ) ;
#150 = SECURITY_CLASSIFICATION ( '', '', #144 ) ;
#151 =( NAMED_UNIT ( * ) SI_UNIT ( $, .STERADIAN. ) SOLID_ANGLE_UNIT ( ) );
#152 = DIRECTION ( 'NONE',  ( 2.853229547240368323E-31, 1.000000000000000000, 1.606225440719276474E-16 ) ) ;
#153 = ORIENTED_EDGE ( 'NONE', *, *, #89, .F. ) ;
#154 = ADVANCED_FACE ( 'NONE', ( #233 ), #196, .T. ) ;
#155 = ORIENTED_EDGE ( 'NONE', *, *, #44, .F. ) ;
#156 = VERTEX_POINT ( 'NONE', #185 ) ;
#157 = CIRCLE ( 'NONE', #297, 1.349999999999994982 ) ;
#158 = VERTEX_POINT ( 'NONE', #268 ) ;
#159 = DIRECTION ( 'NONE',  ( 0.0000000000000000000, 1.000000000000000000, 0.0000000000000000000 ) ) ;
#160 = CC_DESIGN_PERSON_AND_ORGANIZATION_ASSIGNMENT ( #140, #325, ( #50 ) ) ;
#161 = DIRECTION ( 'NONE',  ( 2.853229547240368323E-31, 1.000000000000000000, 1.606225440719276474E-16 ) ) ;
#162 = AXIS2_PLACEMENT_3D ( 'NONE', #167, #40, #63 ) ;
#163 = FACE_OUTER_BOUND ( 'NONE', #57, .T. ) ;
#164 = CARTESIAN_POINT ( 'NONE',  ( 1.152188841818234133E-13, 1.012337853296744580E-32, 33.00000000000000000 ) ) ;
#165 = PRODUCT_DEFINITION ( 'UNKNOWN', '', #50, #17 ) ;
#166 = ADVANCED_FACE ( 'NONE', ( #42 ), #266, .T. ) ;
#167 = CARTESIAN_POINT ( 'NONE',  ( 2.129803616694311221E-13, -7.470345474798856659E-15, 61.00000000000000000 ) ) ;
#168 = PERSON_AND_ORGANIZATION ( #61, #172 ) ;
#169 = DATE_TIME_ROLE ( 'classification_date' ) ;
#170 = CARTESIAN_POINT ( 'NONE',  ( 2.131089495833416053E-13, -1.050000000000005818, 61.00000000000000000 ) ) ;
#171 = AXIS2_PLACEMENT_3D ( 'NONE', #81, #320, #159 ) ;
#172 = ORGANIZATION ( 'UNSPECIFIED', 'UNSPECIFIED', '' ) ;
#173 = CIRCLE ( 'NONE', #308, 1.349999999999994982 ) ;
#174 = FACE_OUTER_BOUND ( 'NONE', #177, .T. ) ;
#175 =( NAMED_UNIT ( * ) PLANE_ANGLE_UNIT ( ) SI_UNIT ( $, .RADIAN. ) );
#176 = CARTESIAN_POINT ( 'NONE',  ( 1.653273178848912569E-16, -1.349999999999993205, -1.653273178848924401E-16 ) ) ;
#177 = EDGE_LOOP ( 'NONE', ( #333, #313, #78 ) ) ;
#178 = LINE ( 'NONE', #52, #31 ) ;
#179 = EDGE_LOOP ( 'NONE', ( #36, #336 ) ) ;
#180 = ORIENTED_EDGE ( 'NONE', *, *, #316, .F. ) ;
#181 = EDGE_LOOP ( 'NONE', ( #77, #285, #133, #226 ) ) ;
#182 = AXIS2_PLACEMENT_3D ( 'NONE', #164, #83, #85 ) ;
#183 = APPLICATION_CONTEXT ( 'configuration controlled 3d designs of mechanical parts and assemblies' ) ;
#184 = ORIENTED_EDGE ( 'NONE', *, *, #187, .T. ) ;
#185 = CARTESIAN_POINT ( 'NONE',  ( 2.129803616694311221E-13, 1.049999999999990941, 61.00000000000000000 ) ) ;
#186 = CARTESIAN_POINT ( 'NONE',  ( 1.637412280426856782E-13, -1.349999999999999201, 33.00000000000000000 ) ) ;
#187 = EDGE_CURVE ( 'NONE', #200, #262, #173, .T. ) ;
#188 = DIRECTION ( 'NONE',  ( 3.491481338843133355E-15, -1.224646799147353454E-16, 1.000000000000000000 ) ) ;
#189 = DIRECTION ( 'NONE',  ( 0.0000000000000000000, 1.000000000000000000, 0.0000000000000000000 ) ) ;
#190 = DATE_AND_TIME ( #115, #60 ) ;
#191 = CARTESIAN_POINT ( 'NONE',  ( 1.152188841818234133E-13, -4.041334437186266989E-15, 33.00000000000000000 ) ) ;
#192 = APPROVAL_ROLE ( '' ) ;
#193 = DIRECTION ( 'NONE',  ( -3.491481338843133355E-15, 1.224646799147353454E-16, -1.000000000000000000 ) ) ;
#194 = AXIS2_PLACEMENT_3D ( 'NONE', #212, #213, #3 ) ;
#195 = CARTESIAN_POINT ( 'NONE',  ( 2.832156412083633011E-15, -9.933867456648328412E-17, 0.8111618356872097868 ) ) ;
#196 = CONICAL_SURFACE ( 'NONE', #162, 1.049999999999998490, 0.7853981633974569387 ) ;
#197 = PRODUCT_RELATED_PRODUCT_CATEGORY ( 'detail', '', ( #255 ) ) ;
#198 = DIRECTION ( 'NONE',  ( -2.853229547240368323E-31, -1.000000000000000000, -1.606225440719276474E-16 ) ) ;
#199 = CARTESIAN_POINT ( 'NONE',  ( 0.0000000000000000000, 0.0000000000000000000, 0.0000000000000000000 ) ) ;
#200 = VERTEX_POINT ( 'NONE', #291 ) ;
#201 = AXIS2_PLACEMENT_3D ( 'NONE', #288, #208, #98 ) ;
#202 = ORIENTED_EDGE ( 'NONE', *, *, #259, .F. ) ;
#203 = CARTESIAN_POINT ( 'NONE',  ( 0.0000000000000000000, 0.0000000000000000000, 0.0000000000000000000 ) ) ;
#204 = DIRECTION ( 'NONE',  ( -3.491481338843133355E-15, 1.224646799147353454E-16, -1.000000000000000000 ) ) ;
#205 = DIRECTION ( 'NONE',  ( 0.0000000000000000000, 1.000000000000000000, 0.0000000000000000000 ) ) ;
#206 = ORIENTED_EDGE ( 'NONE', *, *, #54, .T. ) ;
#207 = EDGE_LOOP ( 'NONE', ( #184, #337, #153, #129 ) ) ;
#208 = DIRECTION ( 'NONE',  ( -3.491481338843133355E-15, 1.224646799147353454E-16, -1.000000000000000000 ) ) ;
#209 = ORIENTED_EDGE ( 'NONE', *, *, #54, .F. ) ;
#210 = CIRCLE ( 'NONE', #19, 1.349999999999994982 ) ;
#211 = EDGE_CURVE ( 'NONE', #262, #200, #210, .T. ) ;
#212 = CARTESIAN_POINT ( 'NONE',  ( 2.129803616694311221E-13, -7.470345474798856659E-15, 61.00000000000000000 ) ) ;
#213 = DIRECTION ( 'NONE',  ( -3.491481338843133355E-15, 1.224646799147353454E-16, -1.000000000000000000 ) ) ;
#214 = CARTESIAN_POINT ( 'NONE',  ( 1.152188841818234133E-13, 1.012337853296744580E-32, 33.00000000000000000 ) ) ;
#215 = DIRECTION ( 'NONE',  ( 1.798245827342160317E-15, -0.8571673007021098911, 0.5150380749100582634 ) ) ;
#216 = FACE_OUTER_BOUND ( 'NONE', #104, .T. ) ;
#217 = AXIS2_PLACEMENT_3D ( 'NONE', #21, #277, #47 ) ;
#218 = VECTOR ( 'NONE', #8, 999.9999999999998863 ) ;
#219 = CARTESIAN_POINT ( 'NONE',  ( 2.832156412083632617E-15, -1.349999999999990985, 0.8111618356872095648 ) ) ;
#220 = CARTESIAN_POINT ( 'NONE',  ( 2.126035970845023513E-13, -1.050000000000005818, 61.00000000000000000 ) ) ;
#221 = EDGE_CURVE ( 'NONE', #248, #306, #62, .T. ) ;
#222 = APPROVAL_ROLE ( '' ) ;
#223 = EDGE_CURVE ( 'NONE', #74, #105, #157, .T. ) ;
#224 = DIRECTION ( 'NONE',  ( 4.275831445896959482E-31, 1.000000000000000000, 1.224646799147353454E-16 ) ) ;
#225 = DIRECTION ( 'NONE',  ( -3.491481338843133355E-15, 1.224646799147353454E-16, -1.000000000000000000 ) ) ;
#226 = ORIENTED_EDGE ( 'NONE', *, *, #114, .F. ) ;
#227 = ORIENTED_EDGE ( 'NONE', *, *, #187, .F. ) ;
#228 = DIRECTION ( 'NONE',  ( 0.0000000000000000000, 0.0000000000000000000, 1.000000000000000000 ) ) ;
#229 = ORIENTED_EDGE ( 'NONE', *, *, #97, .F. ) ;
#230 = DIRECTION ( 'NONE',  ( 1.000000000000000000, 0.0000000000000000000, 0.0000000000000000000 ) ) ;
#231 = CC_DESIGN_DATE_AND_TIME_ASSIGNMENT ( #190, #169, ( #150 ) ) ;
#232 = ORIENTED_EDGE ( 'NONE', *, *, #211, .F. ) ;
#233 = FACE_OUTER_BOUND ( 'NONE', #103, .T. ) ;
#234 = EDGE_LOOP ( 'NONE', ( #209, #51, #34, #134 ) ) ;
#235 = DIRECTION ( 'NONE',  ( -3.491481338843133355E-15, 1.224646799147353454E-16, -1.000000000000000000 ) ) ;
#236 = MANIFOLD_SOLID_BREP ( 'Corps-Déplacer/Copier1[1]', #289 ) ;
#237 = FACE_OUTER_BOUND ( 'NONE', #179, .T. ) ;
#238 = CARTESIAN_POINT ( 'NONE',  ( 0.0000000000000000000, 0.0000000000000000000, 0.0000000000000000000 ) ) ;
#239 = CARTESIAN_POINT ( 'NONE',  ( 2.832156412083633011E-15, -9.933867456648328412E-17, 0.8111618356872097868 ) ) ;
#240 = LINE ( 'NONE', #176, #251 ) ;
#241 = CIRCLE ( 'NONE', #101, 1.049999999999998490 ) ;
#242 = APPROVAL_PERSON_ORGANIZATION ( #168, #112, #222 ) ;
#243 = APPROVAL ( #15, 'UNSPECIFIED' ) ;
#244 = APPROVAL_ROLE ( '' ) ;
#245 = CARTESIAN_POINT ( 'NONE',  ( 1.152188841818234133E-13, 1.349999999999990985, 33.00000000000000000 ) ) ;
#246 = APPLICATION_PROTOCOL_DEFINITION ( 'international standard', 'config_control_design', 1994, #183 ) ;
#247 = CARTESIAN_POINT ( 'NONE',  ( 5.772372451960865830E-31, 1.349999999999993205, 1.653273178848918732E-16 ) ) ;
#248 = VERTEX_POINT ( 'NONE', #292 ) ;
#249 = CALENDAR_DATE ( 2021, 2, 9 ) ;
#250 = DIRECTION ( 'NONE',  ( -3.491481338843133355E-15, 1.224646799147353454E-16, -1.000000000000000000 ) ) ;
#251 = VECTOR ( 'NONE', #204, 1000.000000000000000 ) ;
#252 = PERSON_AND_ORGANIZATION ( #61, #172 ) ;
#253 = DIRECTION ( 'NONE',  ( -3.491481338843133355E-15, 1.224646799147353454E-16, -1.000000000000000000 ) ) ;
#254 = EDGE_LOOP ( 'NONE', ( #227, #232 ) ) ;
#255 = PRODUCT ( '41318', '41318', '', ( #69 ) ) ;
#256 = CALENDAR_DATE ( 2021, 2, 9 ) ;
#257 = APPROVAL_PERSON_ORGANIZATION ( #75, #139, #244 ) ;
#258 = ORIENTED_EDGE ( 'NONE', *, *, #329, .F. ) ;
#259 = EDGE_CURVE ( 'NONE', #28, #306, #76, .T. ) ;
#260 = ORIENTED_EDGE ( 'NONE', *, *, #259, .T. ) ;
#261 = CARTESIAN_POINT ( 'NONE',  ( 2.832156412083632617E-15, -1.349999999999990985, 0.8111618356872095648 ) ) ;
#262 = VERTEX_POINT ( 'NONE', #37 ) ;
#263 = PRODUCT_DEFINITION_SHAPE ( 'NONE', 'NONE',  #165 ) ;
#264 = DIRECTION ( 'NONE',  ( 0.0000000000000000000, 1.000000000000000000, 0.0000000000000000000 ) ) ;
#265 = AXIS2_PLACEMENT_3D ( 'NONE', #239, #235, #161 ) ;
#266 = PLANE ( 'NONE',  #182 ) ;
#267 = ADVANCED_FACE ( 'NONE', ( #294 ), #136, .F. ) ;
#268 = CARTESIAN_POINT ( 'NONE',  ( 2.119329172677782010E-13, 1.349999999999990985, 60.70000000000000284 ) ) ;
#269 = AXIS2_PLACEMENT_3D ( 'NONE', #214, #188, #293 ) ;
#270 = LINE ( 'NONE', #247, #66 ) ;
#271 = APPLICATION_CONTEXT ( 'configuration controlled 3d designs of mechanical parts and assemblies' ) ;
#272 = ADVANCED_FACE ( 'NONE', ( #59 ), #138, .T. ) ;
#273 = PERSON_AND_ORGANIZATION_ROLE ( 'design_owner' ) ;
#274 = VECTOR ( 'NONE', #324, 1000.000000000000000 ) ;
#275 = DIRECTION ( 'NONE',  ( 3.491481338843133355E-15, -1.224646799147353454E-16, 1.000000000000000000 ) ) ;
#276 = PERSON_AND_ORGANIZATION ( #61, #172 ) ;
#277 = DIRECTION ( 'NONE',  ( -3.491481338843133355E-15, 1.224646799147353454E-16, -1.000000000000000000 ) ) ;
#278 = FACE_OUTER_BOUND ( 'NONE', #207, .T. ) ;
#279 = CC_DESIGN_PERSON_AND_ORGANIZATION_ASSIGNMENT ( #252, #273, ( #255 ) ) ;
#280 = CIRCLE ( 'NONE', #135, 1.349999999999990985 ) ;
#281 = CC_DESIGN_APPROVAL ( #112, ( #150 ) ) ;
#282 = ORIENTED_EDGE ( 'NONE', *, *, #310, .T. ) ;
#283 = APPLICATION_PROTOCOL_DEFINITION ( 'international standard', 'config_control_design', 1994, #271 ) ;
#284 = COORDINATED_UNIVERSAL_TIME_OFFSET ( 1, 0, .AHEAD. ) ;
#285 = ORIENTED_EDGE ( 'NONE', *, *, #92, .T. ) ;
#286 = ORIENTED_EDGE ( 'NONE', *, *, #221, .F. ) ;
#287 = ADVANCED_FACE ( 'NONE', ( #163 ), #317, .T. ) ;
#288 = CARTESIAN_POINT ( 'NONE',  ( 2.119329172677782010E-13, -7.433606070824435799E-15, 60.70000000000000284 ) ) ;
#289 = CLOSED_SHELL ( 'NONE', ( #154, #287, #295, #272, #128, #267 ) ) ;
#290 = EDGE_LOOP ( 'NONE', ( #258, #5, #33, #202 ) ) ;
#291 = CARTESIAN_POINT ( 'NONE',  ( 1.152188841818234133E-13, 1.349999999999990985, 33.00000000000000000 ) ) ;
#292 = CARTESIAN_POINT ( 'NONE',  ( 0.0000000000000000000, 0.0000000000000000000, 0.0000000000000000000 ) ) ;
#293 = DIRECTION ( 'NONE',  ( -4.275831445896959482E-31, -1.000000000000000000, -1.224646799147353454E-16 ) ) ;
#294 = FACE_OUTER_BOUND ( 'NONE', #55, .T. ) ;
#295 = ADVANCED_FACE ( 'NONE', ( #237 ), #108, .F. ) ;
#296 = DIRECTION ( 'NONE',  ( 0.0000000000000000000, 1.000000000000000000, 0.0000000000000000000 ) ) ;
#297 = AXIS2_PLACEMENT_3D ( 'NONE', #58, #82, #189 ) ;
#298 = DIRECTION ( 'NONE',  ( 0.0000000000000000000, 1.000000000000000000, 0.0000000000000000000 ) ) ;
#299 = DIRECTION ( 'NONE',  ( 3.491481338843133355E-15, -1.224646799147353454E-16, 1.000000000000000000 ) ) ;
#300 = PERSON_AND_ORGANIZATION ( #61, #172 ) ;
#301 = DATE_AND_TIME ( #7, #147 ) ;
#302 = CYLINDRICAL_SURFACE ( 'NONE', #217, 1.349999999999993205 ) ;
#303 = AXIS2_PLACEMENT_3D ( 'NONE', #203, #228, #230 ) ;
#304 =( LENGTH_UNIT ( ) NAMED_UNIT ( * ) SI_UNIT ( .MILLI., .METRE. ) );
#305 = ADVANCED_FACE ( 'NONE', ( #278 ), #29, .T. ) ;
#306 = VERTEX_POINT ( 'NONE', #65 ) ;
#307 = AXIS2_PLACEMENT_3D ( 'NONE', #323, #193, #298 ) ;
#308 = AXIS2_PLACEMENT_3D ( 'NONE', #191, #321, #296 ) ;
#309 = ORIENTED_EDGE ( 'NONE', *, *, #11, .T. ) ;
#310 = EDGE_CURVE ( 'NONE', #156, #1, #117, .T. ) ;
#311 = VERTEX_POINT ( 'NONE', #121 ) ;
#312 = ORIENTED_EDGE ( 'NONE', *, *, #44, .T. ) ;
#313 = ORIENTED_EDGE ( 'NONE', *, *, #221, .T. ) ;
#314 = FACE_OUTER_BOUND ( 'NONE', #234, .T. ) ;
#315 = DIRECTION ( 'NONE',  ( 4.275831445896959482E-31, 1.000000000000000000, 1.224646799147353454E-16 ) ) ;
#316 = EDGE_CURVE ( 'NONE', #156, #158, #95, .T. ) ;
#317 = CYLINDRICAL_SURFACE ( 'NONE', #142, 1.349999999999996536 ) ;
#318 = CIRCLE ( 'NONE', #307, 1.349999999999998312 ) ;
#319 = CC_DESIGN_PERSON_AND_ORGANIZATION_ASSIGNMENT ( #300, #41, ( #50 ) ) ;
#320 = DIRECTION ( 'NONE',  ( -3.491481338843133355E-15, 1.224646799147353454E-16, -1.000000000000000000 ) ) ;
#321 = DIRECTION ( 'NONE',  ( -3.491481338843133355E-15, 1.224646799147353454E-16, -1.000000000000000000 ) ) ;
#322 = EDGE_CURVE ( 'NONE', #200, #306, #270, .T. ) ;
#323 = CARTESIAN_POINT ( 'NONE',  ( 2.119329172677782010E-13, -7.433606070824435799E-15, 60.70000000000000284 ) ) ;
#324 = DIRECTION ( 'NONE',  ( -2.382254525458694593E-15, -0.7071067811865535679, -0.7071067811865415775 ) ) ;
#325 = PERSON_AND_ORGANIZATION_ROLE ( 'creator' ) ;
#326 = COORDINATED_UNIVERSAL_TIME_OFFSET ( 1, 0, .AHEAD. ) ;
#327 = DIRECTION ( 'NONE',  ( 0.0000000000000000000, 1.000000000000000000, 0.0000000000000000000 ) ) ;
#328 = DIRECTION ( 'NONE',  ( -3.491481338843133355E-15, 1.224646799147353454E-16, -1.000000000000000000 ) ) ;
#329 = EDGE_CURVE ( 'NONE', #262, #28, #240, .T. ) ;
#330 = AXIS2_PLACEMENT_3D ( 'NONE', #6, #13, #315 ) ;
#331 = DIRECTION ( 'NONE',  ( -3.491481338843133355E-15, 1.224646799147353454E-16, -1.000000000000000000 ) ) ;
#332 = EDGE_CURVE ( 'NONE', #158, #74, #178, .T. ) ;
#333 = ORIENTED_EDGE ( 'NONE', *, *, #143, .F. ) ;
#334 = CIRCLE ( 'NONE', #171, 1.349999999999994982 ) ;
#335 = AXIS2_PLACEMENT_3D ( 'NONE', #9, #113, #110 ) ;
#336 = ORIENTED_EDGE ( 'NONE', *, *, #114, .T. ) ;
#337 = ORIENTED_EDGE ( 'NONE', *, *, #329, .T. ) ;
ENDSEC;
END-ISO-10303-21;
