ISO-10303-21;
HEADER;
FILE_DESCRIPTION (( 'STEP AP203' ),
    '1' );
FILE_NAME ('413172.step',
    '2023-11-15T15:38:14',
    ( '' ),
    ( '' ),
    'SwSTEP 2.0',
    'SolidWorks 2022',
    '' );
FILE_SCHEMA (( 'CONFIG_CONTROL_DESIGN' ));
ENDSEC;

DATA;
#1 = CC_DESIGN_APPROVAL ( #173, ( #145 ) ) ;
#2 = ORIENTED_EDGE ( 'NONE', *, *, #203, .T. ) ;
#3 = ORIENTED_EDGE ( 'NONE', *, *, #142, .T. ) ;
#4 =( GEOMETRIC_REPRESENTATION_CONTEXT ( 3 ) GLOBAL_UNCERTAINTY_ASSIGNED_CONTEXT ( ( #108 ) ) GLOBAL_UNIT_ASSIGNED_CONTEXT ( ( #6, #25, #216 ) ) REPRESENTATION_CONTEXT ( 'NONE', 'WORKASPACE' ) );
#5 = CARTESIAN_POINT ( 'NONE',  ( -0.04999999999999991951, -0.3999999999999996891, 4.898587196589408761E-17 ) ) ;
#6 =( LENGTH_UNIT ( ) NAMED_UNIT ( * ) SI_UNIT ( .MILLI., .METRE. ) );
#7 = CYLINDRICAL_SURFACE ( 'NONE', #135, 0.4499999999999999001 ) ;
#8 = PERSON_AND_ORGANIZATION ( #31, #27 ) ;
#9 = PERSON_AND_ORGANIZATION_ROLE ( 'design_supplier' ) ;
#10 = ORIENTED_EDGE ( 'NONE', *, *, #89, .F. ) ;
#11 = CIRCLE ( 'NONE', #185, 0.05000000000000002359 ) ;
#12 = APPROVAL_DATE_TIME ( #67, #120 ) ;
#13 = VERTEX_POINT ( 'NONE', #93 ) ;
#14 = ORIENTED_EDGE ( 'NONE', *, *, #142, .F. ) ;
#15 = EDGE_CURVE ( 'NONE', #38, #13, #20, .T. ) ;
#16 = AXIS2_PLACEMENT_3D ( 'NONE', #199, #90, #184 ) ;
#17 = ORIENTED_EDGE ( 'NONE', *, *, #48, .F. ) ;
#18 = CARTESIAN_POINT ( 'NONE',  ( -0.04999999999999990563, -0.4499999999999997335, 5.510910596163086474E-17 ) ) ;
#19 = FACE_OUTER_BOUND ( 'NONE', #52, .T. ) ;
#20 = CIRCLE ( 'NONE', #63, 0.4500000000000000111 ) ;
#21 = ORIENTED_EDGE ( 'NONE', *, *, #56, .F. ) ;
#22 = ADVANCED_FACE ( 'NONE', ( #57 ), #109, .T. ) ;
#23 = CARTESIAN_POINT ( 'NONE',  ( -0.04999999999999996114, -6.123233995736760951E-18, 0.000000000000000000 ) ) ;
#24 = APPLICATION_CONTEXT ( 'configuration controlled 3d designs of mechanical parts and assemblies' ) ;
#25 =( NAMED_UNIT ( * ) PLANE_ANGLE_UNIT ( ) SI_UNIT ( $, .RADIAN. ) );
#26 = EDGE_CURVE ( 'NONE', #38, #78, #106, .T. ) ;
#27 = ORGANIZATION ( 'UNSPECIFIED', 'UNSPECIFIED', '' ) ;
#28 = CARTESIAN_POINT ( 'NONE',  ( -0.04999999999999996114, -6.123233995736760951E-18, 0.000000000000000000 ) ) ;
#29 = DIRECTION ( 'NONE',  ( -1.000000000000000000, -1.224646799147353207E-16, 0.000000000000000000 ) ) ;
#30 = PERSON_AND_ORGANIZATION ( #31, #27 ) ;
#31 = PERSON ( 'UNSPECIFIED', 'UNSPECIFIED', 'UNSPECIFIED', ('UNSPECIFIED'), ('UNSPECIFIED'), ('UNSPECIFIED') ) ;
#32 = CC_DESIGN_PERSON_AND_ORGANIZATION_ASSIGNMENT ( #221, #9, ( #145 ) ) ;
#33 = EDGE_LOOP ( 'NONE', ( #143, #147, #88, #21 ) ) ;
#34 = COORDINATED_UNIVERSAL_TIME_OFFSET ( 1, 0, .AHEAD. ) ;
#35 = CALENDAR_DATE ( 2023, 15, 11 ) ;
#36 = CIRCLE ( 'NONE', #16, 0.3999999999999996891 ) ;
#37 = FACE_OUTER_BOUND ( 'NONE', #74, .T. ) ;
#38 = VERTEX_POINT ( 'NONE', #55 ) ;
#39 = CLOSED_SHELL ( 'NONE', ( #179, #125, #43, #122, #22, #201 ) ) ;
#40 = VECTOR ( 'NONE', #41, 1000.000000000000000 ) ;
#41 = DIRECTION ( 'NONE',  ( 1.000000000000000000, 1.224646799147353207E-16, -0.000000000000000000 ) ) ;
#42 = ORIENTED_EDGE ( 'NONE', *, *, #26, .F. ) ;
#43 = ADVANCED_FACE ( 'NONE', ( #37 ), #196, .F. ) ;
#44 = LOCAL_TIME ( 16, 38, 14.00000000000000000, #112 ) ;
#45 = APPROVAL_ROLE ( '' ) ;
#46 = FACE_OUTER_BOUND ( 'NONE', #211, .T. ) ;
#47 = PERSON_AND_ORGANIZATION ( #31, #27 ) ;
#48 = EDGE_CURVE ( 'NONE', #13, #38, #180, .T. ) ;
#49 = CALENDAR_DATE ( 2023, 15, 11 ) ;
#50 = AXIS2_PLACEMENT_3D ( 'NONE', #86, #124, #164 ) ;
#51 = SECURITY_CLASSIFICATION_LEVEL ( 'unclassified' ) ;
#52 = EDGE_LOOP ( 'NONE', ( #159, #2, #10, #72 ) ) ;
#53 = DATE_TIME_ROLE ( 'creation_date' ) ;
#54 = AXIS2_PLACEMENT_3D ( 'NONE', #82, #29, #100 ) ;
#55 = CARTESIAN_POINT ( 'NONE',  ( -2.000000000000000000, -0.4500000000000002887, 5.510910596163091404E-17 ) ) ;
#56 = EDGE_CURVE ( 'NONE', #13, #198, #162, .T. ) ;
#57 = FACE_OUTER_BOUND ( 'NONE', #197, .T. ) ;
#58 = DIRECTION ( 'NONE',  ( -1.000000000000000000, -1.224646799147353207E-16, 0.000000000000000000 ) ) ;
#59 = LOCAL_TIME ( 16, 38, 14.00000000000000000, #66 ) ;
#60 = CARTESIAN_POINT ( 'NONE',  ( -0.04999999999999996808, 0.000000000000000000, 0.000000000000000000 ) ) ;
#61 = DIRECTION ( 'NONE',  ( -1.224646799147353207E-16, 1.000000000000000000, 0.000000000000000000 ) ) ;
#62 = CARTESIAN_POINT ( 'NONE',  ( -0.05000000000000001665, 0.3999999999999996891, 0.000000000000000000 ) ) ;
#63 = AXIS2_PLACEMENT_3D ( 'NONE', #157, #160, #178 ) ;
#64 = PRODUCT_DEFINITION ( 'UNKNOWN', '', #145, #177 ) ;
#65 = DIRECTION ( 'NONE',  ( -1.224646799147353207E-16, 1.000000000000000000, 0.000000000000000000 ) ) ;
#66 = COORDINATED_UNIVERSAL_TIME_OFFSET ( 1, 0, .AHEAD. ) ;
#67 = DATE_AND_TIME ( #137, #102 ) ;
#68 = CIRCLE ( 'NONE', #116, 0.05000000000000000278 ) ;
#69 = PERSON_AND_ORGANIZATION_ROLE ( 'creator' ) ;
#70 = ADVANCED_BREP_SHAPE_REPRESENTATION ( '413172', ( #76, #206 ), #4 ) ;
#71 = CC_DESIGN_SECURITY_CLASSIFICATION ( #171, ( #145 ) ) ;
#72 = ORIENTED_EDGE ( 'NONE', *, *, #158, .F. ) ;
#73 = EDGE_LOOP ( 'NONE', ( #227, #3, #210, #172 ) ) ;
#74 = EDGE_LOOP ( 'NONE', ( #123, #77 ) ) ;
#75 = LOCAL_TIME ( 16, 38, 14.00000000000000000, #193 ) ;
#76 = MANIFOLD_SOLID_BREP ( 'Révolution2', #39 ) ;
#77 = ORIENTED_EDGE ( 'NONE', *, *, #212, .T. ) ;
#78 = VERTEX_POINT ( 'NONE', #18 ) ;
#79 = DIRECTION ( 'NONE',  ( -0.000000000000000000, 0.000000000000000000, -1.000000000000000000 ) ) ;
#80 = CARTESIAN_POINT ( 'NONE',  ( -0.05000000000000001665, 0.4499999999999997335, 0.000000000000000000 ) ) ;
#81 = VECTOR ( 'NONE', #195, 1000.000000000000000 ) ;
#82 = CARTESIAN_POINT ( 'NONE',  ( -2.000000000000000000, 3.374459510989176196E-33, 0.000000000000000000 ) ) ;
#83 = AXIS2_PLACEMENT_3D ( 'NONE', #187, #168, #169 ) ;
#84 = APPROVAL_DATE_TIME ( #174, #173 ) ;
#85 = CC_DESIGN_PERSON_AND_ORGANIZATION_ASSIGNMENT ( #223, #154, ( #171 ) ) ;
#86 = CARTESIAN_POINT ( 'NONE',  ( 0.000000000000000000, 0.000000000000000000, 0.000000000000000000 ) ) ;
#87 = CIRCLE ( 'NONE', #215, 0.4499999999999997335 ) ;
#88 = ORIENTED_EDGE ( 'NONE', *, *, #138, .F. ) ;
#89 = EDGE_CURVE ( 'NONE', #129, #127, #36, .T. ) ;
#90 = DIRECTION ( 'NONE',  ( 1.000000000000000000, 1.224646799147353207E-16, -0.000000000000000000 ) ) ;
#91 = ORIENTED_EDGE ( 'NONE', *, *, #15, .T. ) ;
#92 = AXIS2_PLACEMENT_3D ( 'NONE', #181, #58, #105 ) ;
#93 = CARTESIAN_POINT ( 'NONE',  ( -2.000000000000000000, 0.4499999999999997335, 0.000000000000000000 ) ) ;
#94 = CALENDAR_DATE ( 2023, 15, 11 ) ;
#95 = PRODUCT_RELATED_PRODUCT_CATEGORY ( 'detail', '', ( #149 ) ) ;
#96 = APPLICATION_CONTEXT ( 'configuration controlled 3d designs of mechanical parts and assemblies' ) ;
#97 = DIRECTION ( 'NONE',  ( -1.204669080539450083E-16, 1.000000000000000000, 0.000000000000000000 ) ) ;
#98 = AXIS2_PLACEMENT_3D ( 'NONE', #188, #219, #134 ) ;
#99 = CARTESIAN_POINT ( 'NONE',  ( 0.000000000000000000, 0.000000000000000000, 0.000000000000000000 ) ) ;
#100 = DIRECTION ( 'NONE',  ( 1.224646799147353207E-16, -1.000000000000000000, 0.000000000000000000 ) ) ;
#101 = APPROVAL_STATUS ( 'not_yet_approved' ) ;
#102 = LOCAL_TIME ( 16, 38, 14.00000000000000000, #104 ) ;
#103 = APPROVAL_ROLE ( '' ) ;
#104 = COORDINATED_UNIVERSAL_TIME_OFFSET ( 1, 0, .AHEAD. ) ;
#105 = DIRECTION ( 'NONE',  ( 1.224646799147353207E-16, -1.000000000000000000, 0.000000000000000000 ) ) ;
#106 = LINE ( 'NONE', #225, #81 ) ;
#107 = ORIENTED_EDGE ( 'NONE', *, *, #15, .F. ) ;
#108 = UNCERTAINTY_MEASURE_WITH_UNIT (LENGTH_MEASURE( 1.000000000000000082E-05 ), #6, 'distance_accuracy_value', 'NONE');
#109 = CYLINDRICAL_SURFACE ( 'NONE', #50, 0.4499999999999999001 ) ;
#110 = CARTESIAN_POINT ( 'NONE',  ( 8.648747983336820729E-17, -0.3999999999999996891, 5.204748896376247001E-17 ) ) ;
#111 = LOCAL_TIME ( 16, 38, 14.00000000000000000, #34 ) ;
#112 = COORDINATED_UNIVERSAL_TIME_OFFSET ( 1, 0, .AHEAD. ) ;
#113 = APPROVAL ( #101, 'UNSPECIFIED' ) ;
#114 = DIRECTION ( 'NONE',  ( 0.000000000000000000, -1.000000000000000000, 1.224646799147351975E-16 ) ) ;
#115 = DIRECTION ( 'NONE',  ( 1.000000000000000000, 1.224646799147353207E-16, -0.000000000000000000 ) ) ;
#116 = AXIS2_PLACEMENT_3D ( 'NONE', #62, #79, #148 ) ;
#117 = PERSON_AND_ORGANIZATION_ROLE ( 'design_owner' ) ;
#118 = DATE_TIME_ROLE ( 'classification_date' ) ;
#119 = APPROVAL_DATE_TIME ( #165, #113 ) ;
#120 = APPROVAL ( #192, 'UNSPECIFIED' ) ;
#121 = APPROVAL_ROLE ( '' ) ;
#122 = ADVANCED_FACE ( 'NONE', ( #128 ), #202, .T. ) ;
#123 = ORIENTED_EDGE ( 'NONE', *, *, #89, .T. ) ;
#124 = DIRECTION ( 'NONE',  ( 1.000000000000000000, 1.224646799147353207E-16, -0.000000000000000000 ) ) ;
#125 = ADVANCED_FACE ( 'NONE', ( #19 ), #167, .T. ) ;
#126 = CIRCLE ( 'NONE', #83, 0.3999999999999996891 ) ;
#127 = VERTEX_POINT ( 'NONE', #110 ) ;
#128 = FACE_OUTER_BOUND ( 'NONE', #73, .T. ) ;
#129 = VERTEX_POINT ( 'NONE', #218 ) ;
#130 = DIRECTION ( 'NONE',  ( 1.000000000000000000, 1.224646799147353207E-16, -0.000000000000000000 ) ) ;
#131 = FACE_OUTER_BOUND ( 'NONE', #33, .T. ) ;
#132 = DIRECTION ( 'NONE',  ( 0.000000000000000000, 0.000000000000000000, 1.000000000000000000 ) ) ;
#133 = CC_DESIGN_DATE_AND_TIME_ASSIGNMENT ( #139, #118, ( #171 ) ) ;
#134 = DIRECTION ( 'NONE',  ( -1.224646799147353207E-16, 1.000000000000000000, 0.000000000000000000 ) ) ;
#135 = AXIS2_PLACEMENT_3D ( 'NONE', #99, #166, #65 ) ;
#136 = APPLICATION_PROTOCOL_DEFINITION ( 'international standard', 'config_control_design', 1994, #24 ) ;
#137 = CALENDAR_DATE ( 2023, 15, 11 ) ;
#138 = EDGE_CURVE ( 'NONE', #198, #78, #87, .T. ) ;
#139 = DATE_AND_TIME ( #49, #111 ) ;
#140 = CC_DESIGN_DATE_AND_TIME_ASSIGNMENT ( #207, #53, ( #64 ) ) ;
#141 = APPROVAL_PERSON_ORGANIZATION ( #8, #120, #103 ) ;
#142 = EDGE_CURVE ( 'NONE', #78, #198, #220, .T. ) ;
#143 = ORIENTED_EDGE ( 'NONE', *, *, #48, .T. ) ;
#144 = CARTESIAN_POINT ( 'NONE',  ( -5.510910596163087707E-17, 0.4499999999999999001, 0.000000000000000000 ) ) ;
#145 = PRODUCT_DEFINITION_FORMATION_WITH_SPECIFIED_SOURCE ( 'ANY', '', #149, .NOT_KNOWN. ) ;
#146 = DIRECTION ( 'NONE',  ( 0.000000000000000000, 1.000000000000000000, 0.000000000000000000 ) ) ;
#147 = ORIENTED_EDGE ( 'NONE', *, *, #26, .T. ) ;
#148 = DIRECTION ( 'NONE',  ( -1.000000000000000000, 0.000000000000000000, 0.000000000000000000 ) ) ;
#149 = PRODUCT ( '413172', '413172', '', ( #204 ) ) ;
#150 = AXIS2_PLACEMENT_3D ( 'NONE', #28, #130, #214 ) ;
#151 = CARTESIAN_POINT ( 'NONE',  ( 0.000000000000000000, 0.000000000000000000, 0.000000000000000000 ) ) ;
#152 = CC_DESIGN_APPROVAL ( #120, ( #171 ) ) ;
#153 = PERSON_AND_ORGANIZATION ( #31, #27 ) ;
#154 = PERSON_AND_ORGANIZATION_ROLE ( 'classification_officer' ) ;
#155 = PERSON_AND_ORGANIZATION_ROLE ( 'creator' ) ;
#156 = CC_DESIGN_APPROVAL ( #113, ( #64 ) ) ;
#157 = CARTESIAN_POINT ( 'NONE',  ( -2.000000000000000000, -2.449293598294706414E-16, 0.000000000000000000 ) ) ;
#158 = EDGE_CURVE ( 'NONE', #198, #129, #68, .T. ) ;
#159 = ORIENTED_EDGE ( 'NONE', *, *, #138, .T. ) ;
#160 = DIRECTION ( 'NONE',  ( 1.000000000000000000, 1.224646799147353207E-16, -0.000000000000000000 ) ) ;
#161 = APPROVAL_PERSON_ORGANIZATION ( #30, #113, #45 ) ;
#162 = LINE ( 'NONE', #144, #40 ) ;
#163 = CC_DESIGN_PERSON_AND_ORGANIZATION_ASSIGNMENT ( #222, #69, ( #145 ) ) ;
#164 = DIRECTION ( 'NONE',  ( -1.224646799147353207E-16, 1.000000000000000000, 0.000000000000000000 ) ) ;
#165 = DATE_AND_TIME ( #94, #44 ) ;
#166 = DIRECTION ( 'NONE',  ( 1.000000000000000000, 1.224646799147353207E-16, -0.000000000000000000 ) ) ;
#167 = TOROIDAL_SURFACE ( 'NONE', #98, 0.3999999999999996891, 0.05000000000000000971 ) ;
#168 = DIRECTION ( 'NONE',  ( 1.000000000000000000, 1.224646799147353207E-16, -0.000000000000000000 ) ) ;
#169 = DIRECTION ( 'NONE',  ( -1.224646799147353207E-16, 1.000000000000000000, 0.000000000000000000 ) ) ;
#170 = CC_DESIGN_PERSON_AND_ORGANIZATION_ASSIGNMENT ( #176, #155, ( #64 ) ) ;
#171 = SECURITY_CLASSIFICATION ( '', '', #51 ) ;
#172 = ORIENTED_EDGE ( 'NONE', *, *, #212, .F. ) ;
#173 = APPROVAL ( #191, 'UNSPECIFIED' ) ;
#174 = DATE_AND_TIME ( #35, #75 ) ;
#175 = AXIS2_PLACEMENT_3D ( 'NONE', #186, #226, #146 ) ;
#176 = PERSON_AND_ORGANIZATION ( #31, #27 ) ;
#177 = DESIGN_CONTEXT ( 'detailed design', #96, 'design' ) ;
#178 = DIRECTION ( 'NONE',  ( 0.000000000000000000, 1.000000000000000000, 0.000000000000000000 ) ) ;
#179 = ADVANCED_FACE ( 'NONE', ( #131 ), #7, .T. ) ;
#180 = CIRCLE ( 'NONE', #175, 0.4500000000000000111 ) ;
#181 = CARTESIAN_POINT ( 'NONE',  ( 1.875080393373705984E-17, 2.296311201889069059E-33, 0.000000000000000000 ) ) ;
#182 = ORIENTED_EDGE ( 'NONE', *, *, #56, .T. ) ;
#183 = PRODUCT_DEFINITION_SHAPE ( 'NONE', 'NONE',  #64 ) ;
#184 = DIRECTION ( 'NONE',  ( -1.224646799147353207E-16, 1.000000000000000000, 0.000000000000000000 ) ) ;
#185 = AXIS2_PLACEMENT_3D ( 'NONE', #5, #217, #114 ) ;
#186 = CARTESIAN_POINT ( 'NONE',  ( -2.000000000000000000, -2.449293598294706414E-16, 0.000000000000000000 ) ) ;
#187 = CARTESIAN_POINT ( 'NONE',  ( 3.750160786747411968E-17, 4.592622403778138118E-33, 0.000000000000000000 ) ) ;
#188 = CARTESIAN_POINT ( 'NONE',  ( -0.04999999999999996808, 0.000000000000000000, 0.000000000000000000 ) ) ;
#189 = PLANE ( 'NONE',  #54 ) ;
#190 = APPLICATION_PROTOCOL_DEFINITION ( 'international standard', 'config_control_design', 1994, #96 ) ;
#191 = APPROVAL_STATUS ( 'not_yet_approved' ) ;
#192 = APPROVAL_STATUS ( 'not_yet_approved' ) ;
#193 = COORDINATED_UNIVERSAL_TIME_OFFSET ( 1, 0, .AHEAD. ) ;
#194 = CALENDAR_DATE ( 2023, 15, 11 ) ;
#195 = DIRECTION ( 'NONE',  ( 1.000000000000000000, 1.224646799147353207E-16, -0.000000000000000000 ) ) ;
#196 = PLANE ( 'NONE',  #92 ) ;
#197 = EDGE_LOOP ( 'NONE', ( #42, #91, #182, #14 ) ) ;
#198 = VERTEX_POINT ( 'NONE', #80 ) ;
#199 = CARTESIAN_POINT ( 'NONE',  ( 3.750160786747411968E-17, 4.592622403778138118E-33, 0.000000000000000000 ) ) ;
#200 = DIRECTION ( 'NONE',  ( 1.000000000000000000, 0.000000000000000000, 0.000000000000000000 ) ) ;
#201 = ADVANCED_FACE ( 'NONE', ( #46 ), #189, .T. ) ;
#202 = TOROIDAL_SURFACE ( 'NONE', #224, 0.3999999999999996891, 0.05000000000000000971 ) ;
#203 = EDGE_CURVE ( 'NONE', #78, #127, #11, .T. ) ;
#204 = MECHANICAL_CONTEXT ( 'NONE', #24, 'mechanical' ) ;
#205 = SHAPE_DEFINITION_REPRESENTATION ( #183, #70 ) ;
#206 = AXIS2_PLACEMENT_3D ( 'NONE', #151, #132, #200 ) ;
#207 = DATE_AND_TIME ( #194, #59 ) ;
#208 = APPROVAL_PERSON_ORGANIZATION ( #153, #173, #121 ) ;
#209 = CC_DESIGN_PERSON_AND_ORGANIZATION_ASSIGNMENT ( #47, #117, ( #149 ) ) ;
#210 = ORIENTED_EDGE ( 'NONE', *, *, #158, .T. ) ;
#211 = EDGE_LOOP ( 'NONE', ( #17, #107 ) ) ;
#212 = EDGE_CURVE ( 'NONE', #127, #129, #126, .T. ) ;
#213 = DIRECTION ( 'NONE',  ( 1.000000000000000000, 1.224646799147353207E-16, -0.000000000000000000 ) ) ;
#214 = DIRECTION ( 'NONE',  ( -1.204669080539450083E-16, 1.000000000000000000, 0.000000000000000000 ) ) ;
#215 = AXIS2_PLACEMENT_3D ( 'NONE', #23, #115, #97 ) ;
#216 =( NAMED_UNIT ( * ) SI_UNIT ( $, .STERADIAN. ) SOLID_ANGLE_UNIT ( ) );
#217 = DIRECTION ( 'NONE',  ( -1.499759782661857608E-32, 1.224646799147353207E-16, 1.000000000000000000 ) ) ;
#218 = CARTESIAN_POINT ( 'NONE',  ( -1.148426409841996947E-17, 0.3999999999999996891, 0.000000000000000000 ) ) ;
#219 = DIRECTION ( 'NONE',  ( 1.000000000000000000, 1.224646799147353207E-16, -0.000000000000000000 ) ) ;
#220 = CIRCLE ( 'NONE', #150, 0.4499999999999997335 ) ;
#221 = PERSON_AND_ORGANIZATION ( #31, #27 ) ;
#222 = PERSON_AND_ORGANIZATION ( #31, #27 ) ;
#223 = PERSON_AND_ORGANIZATION ( #31, #27 ) ;
#224 = AXIS2_PLACEMENT_3D ( 'NONE', #60, #213, #61 ) ;
#225 = CARTESIAN_POINT ( 'NONE',  ( 5.510910596163087707E-17, -0.4499999999999999001, 5.510910596163087707E-17 ) ) ;
#226 = DIRECTION ( 'NONE',  ( 1.000000000000000000, 1.224646799147353207E-16, -0.000000000000000000 ) ) ;
#227 = ORIENTED_EDGE ( 'NONE', *, *, #203, .F. ) ;
ENDSEC;
END-ISO-10303-21;
