ISO-10303-21;
HEADER;
FILE_DESCRIPTION (( 'STEP AP203' ),
    '1' );
FILE_NAME ('41297.step',
    '2021-10-07T13:47:59',
    ( '' ),
    ( '' ),
    'SwSTEP 2.0',
    'SolidWorks 2019',
    '' );
FILE_SCHEMA (( 'CONFIG_CONTROL_DESIGN' ));
ENDSEC;

DATA;
#1 = CARTESIAN_POINT ( 'NONE',  ( 4.189777606611760026E-14, 0.8199999999999942890, 12.00000000000000000 ) ) ;
#2 = APPROVAL_ROLE ( '' ) ;
#3 = PERSON_AND_ORGANIZATION ( #139, #178 ) ;
#4 = PERSON_AND_ORGANIZATION_ROLE ( 'design_owner' ) ;
#5 = ADVANCED_FACE ( 'NONE', ( #165 ), #56, .F. ) ;
#6 = CC_DESIGN_SECURITY_CLASSIFICATION ( #131, ( #77 ) ) ;
#7 = EDGE_CURVE ( 'NONE', #155, #155, #54, .T. ) ;
#8 = EDGE_LOOP ( 'NONE', ( #138 ) ) ;
#9 = EDGE_LOOP ( 'NONE', ( #154 ) ) ;
#10 = APPROVAL_PERSON_ORGANIZATION ( #146, #96, #2 ) ;
#11 = VERTEX_POINT ( 'NONE', #79 ) ;
#12 = DIRECTION ( 'NONE',  ( -3.491481338843133355E-15, 1.224646799147353207E-16, -1.000000000000000000 ) ) ;
#13 = DIRECTION ( 'NONE',  ( -3.491481338843133355E-15, 1.224646799147353207E-16, -1.000000000000000000 ) ) ;
#14 = CYLINDRICAL_SURFACE ( 'NONE', #100, 0.8199999999999950662 ) ;
#15 = DIRECTION ( 'NONE',  ( -3.491481338843133355E-15, 1.224646799147353207E-16, -1.000000000000000000 ) ) ;
#16 = CC_DESIGN_DATE_AND_TIME_ASSIGNMENT ( #130, #18, ( #148 ) ) ;
#17 = CC_DESIGN_APPROVAL ( #86, ( #148 ) ) ;
#18 = DATE_TIME_ROLE ( 'creation_date' ) ;
#19 = AXIS2_PLACEMENT_3D ( 'NONE', #29, #144, #222 ) ;
#20 = CALENDAR_DATE ( 2021, 7, 10 ) ;
#21 = APPLICATION_PROTOCOL_DEFINITION ( 'international standard', 'config_control_design', 1994, #124 ) ;
#22 = CC_DESIGN_PERSON_AND_ORGANIZATION_ASSIGNMENT ( #55, #195, ( #148 ) ) ;
#23 = CIRCLE ( 'NONE', #114, 1.000000000000000888 ) ;
#24 = EDGE_LOOP ( 'NONE', ( #179 ) ) ;
#25 = LOCAL_TIME ( 15, 47, 59.00000000000000000, #36 ) ;
#26 = EDGE_LOOP ( 'NONE', ( #199 ) ) ;
#27 = DIRECTION ( 'NONE',  ( 0.0000000000000000000, 1.000000000000000000, 0.0000000000000000000 ) ) ;
#28 = PRODUCT_RELATED_PRODUCT_CATEGORY ( 'detail', '', ( #62 ) ) ;
#29 = CARTESIAN_POINT ( 'NONE',  ( 4.298631221917752075E-14, -1.507756867570921792E-15, 12.31176914536240830 ) ) ;
#30 = DIRECTION ( 'NONE',  ( 3.491481338843133355E-15, -1.224646799147353207E-16, 1.000000000000000000 ) ) ;
#31 = DIRECTION ( 'NONE',  ( -3.491481338843133355E-15, 1.224646799147353207E-16, -1.000000000000000000 ) ) ;
#32 = CARTESIAN_POINT ( 'NONE',  ( 4.189777606611760026E-14, 6.149015108913563233E-33, 12.00000000000000000 ) ) ;
#33 = COORDINATED_UNIVERSAL_TIME_OFFSET ( 1, 0, .AHEAD. ) ;
#34 = PERSON_AND_ORGANIZATION_ROLE ( 'creator' ) ;
#35 = ADVANCED_FACE ( 'NONE', ( #61 ), #105, .F. ) ;
#36 = COORDINATED_UNIVERSAL_TIME_OFFSET ( 1, 0, .AHEAD. ) ;
#37 = CIRCLE ( 'NONE', #110, 0.8199999999999958433 ) ;
#38 = PERSON_AND_ORGANIZATION ( #139, #178 ) ;
#39 = DIRECTION ( 'NONE',  ( 3.491481338843133355E-15, -1.224646799147353207E-16, 1.000000000000000000 ) ) ;
#40 = CIRCLE ( 'NONE', #194, 0.9999999999999970024 ) ;
#41 = MANIFOLD_SOLID_BREP ( 'Corps-Déplacer/Copier1[2]', #167 ) ;
#42 = ORIENTED_EDGE ( 'NONE', *, *, #68, .F. ) ;
#43 = LOCAL_TIME ( 15, 47, 59.00000000000000000, #193 ) ;
#44 = FACE_OUTER_BOUND ( 'NONE', #118, .T. ) ;
#45 = CARTESIAN_POINT ( 'NONE',  ( 1.326762908760390423E-13, -4.653657836759941941E-15, 38.00000000000000000 ) ) ;
#46 = DIRECTION ( 'NONE',  ( -3.491481338843133355E-15, 1.224646799147353207E-16, -1.000000000000000000 ) ) ;
#47 = APPROVAL_PERSON_ORGANIZATION ( #191, #86, #111 ) ;
#48 = CARTESIAN_POINT ( 'NONE',  ( 4.189777606611760026E-14, 0.8199999999999942890, 12.00000000000000000 ) ) ;
#49 = FACE_BOUND ( 'NONE', #8, .T. ) ;
#50 = DATE_AND_TIME ( #51, #25 ) ;
#51 = CALENDAR_DATE ( 2021, 7, 10 ) ;
#52 = ADVANCED_FACE ( 'NONE', ( #44, #49 ), #74, .T. ) ;
#53 = APPROVAL_ROLE ( '' ) ;
#54 = CIRCLE ( 'NONE', #197, 0.8199999999999942890 ) ;
#55 = PERSON_AND_ORGANIZATION ( #139, #178 ) ;
#56 = PLANE ( 'NONE',  #128 ) ;
#57 = APPROVAL_DATE_TIME ( #196, #60 ) ;
#58 = CC_DESIGN_PERSON_AND_ORGANIZATION_ASSIGNMENT ( #69, #192, ( #131 ) ) ;
#59 = ORIENTED_EDGE ( 'NONE', *, *, #70, .T. ) ;
#60 = APPROVAL ( #210, 'UNSPECIFIED' ) ;
#61 = FACE_OUTER_BOUND ( 'NONE', #214, .T. ) ;
#62 = PRODUCT ( '41297', '41297', '', ( #108 ) ) ;
#63 = CYLINDRICAL_SURFACE ( 'NONE', #213, 0.9999999999999988898 ) ;
#64 = FACE_BOUND ( 'NONE', #26, .T. ) ;
#65 = FACE_OUTER_BOUND ( 'NONE', #97, .T. ) ;
#66 = LOCAL_TIME ( 15, 47, 59.00000000000000000, #129 ) ;
#67 = DIRECTION ( 'NONE',  ( -3.491481338843133355E-15, 1.224646799147353207E-16, -1.000000000000000000 ) ) ;
#68 = EDGE_CURVE ( 'NONE', #11, #11, #122, .T. ) ;
#69 = PERSON_AND_ORGANIZATION ( #139, #178 ) ;
#70 = EDGE_CURVE ( 'NONE', #141, #141, #40, .T. ) ;
#71 = CLOSED_SHELL ( 'NONE', ( #5, #113, #149, #52, #35 ) ) ;
#72 =( NAMED_UNIT ( * ) SI_UNIT ( $, .STERADIAN. ) SOLID_ANGLE_UNIT ( ) );
#73 = COORDINATED_UNIVERSAL_TIME_OFFSET ( 1, 0, .AHEAD. ) ;
#74 = CONICAL_SURFACE ( 'NONE', #189, 0.8000000000000010436, 0.7853981633974510546 ) ;
#75 = ORIENTED_EDGE ( 'NONE', *, *, #7, .F. ) ;
#76 = EDGE_LOOP ( 'NONE', ( #198 ) ) ;
#77 = PRODUCT_DEFINITION_FORMATION_WITH_SPECIFIED_SOURCE ( 'ANY', '', #62, .NOT_KNOWN. ) ;
#78 = ORIENTED_EDGE ( 'NONE', *, *, #70, .F. ) ;
#79 = CARTESIAN_POINT ( 'NONE',  ( 1.326762908760390423E-13, 0.7999999999999963807, 38.00000000000000000 ) ) ;
#80 = DIRECTION ( 'NONE',  ( -3.491481338843133355E-15, 1.224646799147353207E-16, -1.000000000000000000 ) ) ;
#81 = DIRECTION ( 'NONE',  ( 3.491481338843133355E-15, -1.224646799147353207E-16, 1.000000000000000000 ) ) ;
#82 = DIRECTION ( 'NONE',  ( -3.491481338843133355E-15, 1.224646799147353207E-16, -1.000000000000000000 ) ) ;
#83 = FACE_OUTER_BOUND ( 'NONE', #76, .T. ) ;
#84 = CONICAL_SURFACE ( 'NONE', #19, 0.9999999999999970024, 0.5235987755982878245 ) ;
#85 = DATE_AND_TIME ( #150, #107 ) ;
#86 = APPROVAL ( #162, 'UNSPECIFIED' ) ;
#87 = APPROVAL_DATE_TIME ( #147, #96 ) ;
#88 =( NAMED_UNIT ( * ) PLANE_ANGLE_UNIT ( ) SI_UNIT ( $, .RADIAN. ) );
#89 = CIRCLE ( 'NONE', #135, 0.8199999999999958433 ) ;
#90 = DATE_TIME_ROLE ( 'classification_date' ) ;
#91 = CC_DESIGN_DATE_AND_TIME_ASSIGNMENT ( #50, #90, ( #131 ) ) ;
#92 =( LENGTH_UNIT ( ) NAMED_UNIT ( * ) SI_UNIT ( .MILLI., .METRE. ) );
#93 = EDGE_LOOP ( 'NONE', ( #75 ) ) ;
#94 = LOCAL_TIME ( 15, 47, 59.00000000000000000, #33 ) ;
#95 = ORIENTED_EDGE ( 'NONE', *, *, #134, .T. ) ;
#96 = APPROVAL ( #145, 'UNSPECIFIED' ) ;
#97 = EDGE_LOOP ( 'NONE', ( #78 ) ) ;
#98 = CARTESIAN_POINT ( 'NONE',  ( 4.189777606611760026E-14, -1.469576158976823947E-15, 12.00000000000000000 ) ) ;
#99 = CARTESIAN_POINT ( 'NONE',  ( 0.0000000000000000000, 0.0000000000000000000, 0.0000000000000000000 ) ) ;
#100 = AXIS2_PLACEMENT_3D ( 'NONE', #170, #31, #217 ) ;
#101 = ADVANCED_FACE ( 'NONE', ( #156 ), #212, .T. ) ;
#102 = ADVANCED_FACE ( 'NONE', ( #160, #83 ), #14, .T. ) ;
#103 = CARTESIAN_POINT ( 'NONE',  ( 1.319779946082704535E-13, 0.9999999999999963363, 37.79999999999999716 ) ) ;
#104 = CARTESIAN_POINT ( 'NONE',  ( 1.319779946082704535E-13, -4.629164900776995227E-15, 37.79999999999999716 ) ) ;
#105 = PLANE ( 'NONE',  #180 ) ;
#106 = CC_DESIGN_PERSON_AND_ORGANIZATION_ASSIGNMENT ( #208, #171, ( #77 ) ) ;
#107 = LOCAL_TIME ( 15, 47, 59.00000000000000000, #73 ) ;
#108 = MECHANICAL_CONTEXT ( 'NONE', #124, 'mechanical' ) ;
#109 = DIRECTION ( 'NONE',  ( 1.000000000000000000, 0.0000000000000000000, 0.0000000000000000000 ) ) ;
#110 = AXIS2_PLACEMENT_3D ( 'NONE', #98, #126, #207 ) ;
#111 = APPROVAL_ROLE ( '' ) ;
#112 = DIRECTION ( 'NONE',  ( -4.275831445896958607E-31, -1.000000000000000000, -1.224646799147353207E-16 ) ) ;
#113 = ADVANCED_FACE ( 'NONE', ( #64, #181 ), #84, .T. ) ;
#114 = AXIS2_PLACEMENT_3D ( 'NONE', #104, #80, #185 ) ;
#115 = MANIFOLD_SOLID_BREP ( 'Corps-Déplacer/Copier1[1]', #71 ) ;
#116 = EDGE_LOOP ( 'NONE', ( #59 ) ) ;
#117 = AXIS2_PLACEMENT_3D ( 'NONE', #132, #223, #109 ) ;
#118 = EDGE_LOOP ( 'NONE', ( #152 ) ) ;
#119 = CARTESIAN_POINT ( 'NONE',  ( 4.189777606611760026E-14, -1.469576158976823947E-15, 12.00000000000000000 ) ) ;
#120 = CARTESIAN_POINT ( 'NONE',  ( 4.298631221917752075E-14, -1.507756867570921792E-15, 12.31176914536240830 ) ) ;
#121 = VERTEX_POINT ( 'NONE', #103 ) ;
#122 = CIRCLE ( 'NONE', #201, 0.8000000000000010436 ) ;
#123 = AXIS2_PLACEMENT_3D ( 'NONE', #183, #81, #159 ) ;
#124 = APPLICATION_CONTEXT ( 'configuration controlled 3d designs of mechanical parts and assemblies' ) ;
#125 = DIRECTION ( 'NONE',  ( 0.0000000000000000000, 1.000000000000000000, 0.0000000000000000000 ) ) ;
#126 = DIRECTION ( 'NONE',  ( -3.491481338843133355E-15, 1.224646799147353207E-16, -1.000000000000000000 ) ) ;
#127 = APPROVAL_DATE_TIME ( #85, #86 ) ;
#128 = AXIS2_PLACEMENT_3D ( 'NONE', #133, #39, #112 ) ;
#129 = COORDINATED_UNIVERSAL_TIME_OFFSET ( 1, 0, .AHEAD. ) ;
#130 = DATE_AND_TIME ( #20, #94 ) ;
#131 = SECURITY_CLASSIFICATION ( '', '', #161 ) ;
#132 = CARTESIAN_POINT ( 'NONE',  ( 0.0000000000000000000, 0.0000000000000000000, 0.0000000000000000000 ) ) ;
#133 = CARTESIAN_POINT ( 'NONE',  ( 4.189777606611760026E-14, 6.149015108913563233E-33, 12.00000000000000000 ) ) ;
#134 = EDGE_CURVE ( 'NONE', #121, #121, #23, .T. ) ;
#135 = AXIS2_PLACEMENT_3D ( 'NONE', #119, #82, #143 ) ;
#136 = ORIENTED_EDGE ( 'NONE', *, *, #7, .T. ) ;
#137 = CALENDAR_DATE ( 2021, 7, 10 ) ;
#138 = ORIENTED_EDGE ( 'NONE', *, *, #68, .T. ) ;
#139 = PERSON ( 'UNSPECIFIED', 'UNSPECIFIED', 'UNSPECIFIED', ('UNSPECIFIED'), ('UNSPECIFIED'), ('UNSPECIFIED') ) ;
#140 = UNCERTAINTY_MEASURE_WITH_UNIT (LENGTH_MEASURE( 1.000000000000000082E-05 ), #92, 'distance_accuracy_value', 'NONE');
#141 = VERTEX_POINT ( 'NONE', #142 ) ;
#142 = CARTESIAN_POINT ( 'NONE',  ( 4.298631221917752075E-14, 0.9999999999999954481, 12.31176914536240830 ) ) ;
#143 = DIRECTION ( 'NONE',  ( 0.0000000000000000000, 1.000000000000000000, 0.0000000000000000000 ) ) ;
#144 = DIRECTION ( 'NONE',  ( 3.491481338843133355E-15, -1.224646799147353207E-16, 1.000000000000000000 ) ) ;
#145 = APPROVAL_STATUS ( 'not_yet_approved' ) ;
#146 = PERSON_AND_ORGANIZATION ( #139, #178 ) ;
#147 = DATE_AND_TIME ( #174, #66 ) ;
#148 = PRODUCT_DEFINITION ( 'UNKNOWN', '', #77, #200 ) ;
#149 = ADVANCED_FACE ( 'NONE', ( #65, #203 ), #63, .T. ) ;
#150 = CALENDAR_DATE ( 2021, 7, 10 ) ;
#151 = APPROVAL_PERSON_ORGANIZATION ( #3, #60, #53 ) ;
#152 = ORIENTED_EDGE ( 'NONE', *, *, #134, .F. ) ;
#153 = AXIS2_PLACEMENT_3D ( 'NONE', #32, #30, #218 ) ;
#154 = ORIENTED_EDGE ( 'NONE', *, *, #184, .T. ) ;
#155 = VERTEX_POINT ( 'NONE', #168 ) ;
#156 = FACE_OUTER_BOUND ( 'NONE', #163, .T. ) ;
#157 = FACE_OUTER_BOUND ( 'NONE', #24, .T. ) ;
#158 = PRODUCT_DEFINITION_SHAPE ( 'NONE', 'NONE',  #148 ) ;
#159 = DIRECTION ( 'NONE',  ( -4.697390108261583223E-31, -1.000000000000000000, -1.322197771323795004E-16 ) ) ;
#160 = FACE_OUTER_BOUND ( 'NONE', #93, .T. ) ;
#161 = SECURITY_CLASSIFICATION_LEVEL ( 'unclassified' ) ;
#162 = APPROVAL_STATUS ( 'not_yet_approved' ) ;
#163 = EDGE_LOOP ( 'NONE', ( #136 ) ) ;
#164 = EDGE_LOOP ( 'NONE', ( #95 ) ) ;
#165 = FACE_OUTER_BOUND ( 'NONE', #9, .T. ) ;
#166 = DIRECTION ( 'NONE',  ( 4.697390108261583223E-31, 1.000000000000000000, 1.322197771323795004E-16 ) ) ;
#167 = CLOSED_SHELL ( 'NONE', ( #101, #102, #206 ) ) ;
#168 = CARTESIAN_POINT ( 'NONE',  ( 1.720272783635984491E-15, 0.8199999999999942890, 0.4927057076026014615 ) ) ;
#169 = DIRECTION ( 'NONE',  ( 4.275831445896958607E-31, 1.000000000000000000, 1.224646799147353207E-16 ) ) ;
#170 = CARTESIAN_POINT ( 'NONE',  ( 0.0000000000000000000, 0.0000000000000000000, 0.0000000000000000000 ) ) ;
#171 = PERSON_AND_ORGANIZATION_ROLE ( 'design_supplier' ) ;
#172 = CC_DESIGN_APPROVAL ( #60, ( #131 ) ) ;
#173 = ADVANCED_BREP_SHAPE_REPRESENTATION ( '41297', ( #115, #41, #117 ), #216 ) ;
#174 = CALENDAR_DATE ( 2021, 7, 10 ) ;
#175 = PERSON_AND_ORGANIZATION ( #139, #178 ) ;
#176 = CC_DESIGN_PERSON_AND_ORGANIZATION_ASSIGNMENT ( #38, #34, ( #77 ) ) ;
#177 = SHAPE_DEFINITION_REPRESENTATION ( #158, #173 ) ;
#178 = ORGANIZATION ( 'UNSPECIFIED', 'UNSPECIFIED', '' ) ;
#179 = ORIENTED_EDGE ( 'NONE', *, *, #190, .F. ) ;
#180 = AXIS2_PLACEMENT_3D ( 'NONE', #187, #215, #169 ) ;
#181 = FACE_OUTER_BOUND ( 'NONE', #116, .T. ) ;
#182 = APPLICATION_CONTEXT ( 'configuration controlled 3d designs of mechanical parts and assemblies' ) ;
#183 = CARTESIAN_POINT ( 'NONE',  ( 1.720272783635984097E-15, -6.033904677371575404E-17, 0.4927057076026013505 ) ) ;
#184 = EDGE_CURVE ( 'NONE', #205, #205, #89, .T. ) ;
#185 = DIRECTION ( 'NONE',  ( 0.0000000000000000000, 1.000000000000000000, 0.0000000000000000000 ) ) ;
#186 = PLANE ( 'NONE',  #153 ) ;
#187 = CARTESIAN_POINT ( 'NONE',  ( 1.326762908760390423E-13, 5.999039130647368167E-33, 38.00000000000000000 ) ) ;
#188 = VERTEX_POINT ( 'NONE', #1 ) ;
#189 = AXIS2_PLACEMENT_3D ( 'NONE', #204, #12, #125 ) ;
#190 = EDGE_CURVE ( 'NONE', #188, #188, #37, .T. ) ;
#191 = PERSON_AND_ORGANIZATION ( #139, #178 ) ;
#192 = PERSON_AND_ORGANIZATION_ROLE ( 'classification_officer' ) ;
#193 = COORDINATED_UNIVERSAL_TIME_OFFSET ( 1, 0, .AHEAD. ) ;
#194 = AXIS2_PLACEMENT_3D ( 'NONE', #120, #46, #27 ) ;
#195 = PERSON_AND_ORGANIZATION_ROLE ( 'creator' ) ;
#196 = DATE_AND_TIME ( #137, #43 ) ;
#197 = AXIS2_PLACEMENT_3D ( 'NONE', #211, #13, #166 ) ;
#198 = ORIENTED_EDGE ( 'NONE', *, *, #190, .T. ) ;
#199 = ORIENTED_EDGE ( 'NONE', *, *, #184, .F. ) ;
#200 = DESIGN_CONTEXT ( 'detailed design', #182, 'design' ) ;
#201 = AXIS2_PLACEMENT_3D ( 'NONE', #45, #15, #220 ) ;
#202 = DIRECTION ( 'NONE',  ( 4.275831445896957731E-31, 1.000000000000000000, 1.224646799147353454E-16 ) ) ;
#203 = FACE_OUTER_BOUND ( 'NONE', #164, .T. ) ;
#204 = CARTESIAN_POINT ( 'NONE',  ( 1.326762908760390423E-13, -4.653657836759941941E-15, 38.00000000000000000 ) ) ;
#205 = VERTEX_POINT ( 'NONE', #48 ) ;
#206 = ADVANCED_FACE ( 'NONE', ( #157 ), #186, .T. ) ;
#207 = DIRECTION ( 'NONE',  ( 0.0000000000000000000, 1.000000000000000000, 0.0000000000000000000 ) ) ;
#208 = PERSON_AND_ORGANIZATION ( #139, #178 ) ;
#209 = APPLICATION_PROTOCOL_DEFINITION ( 'international standard', 'config_control_design', 1994, #182 ) ;
#210 = APPROVAL_STATUS ( 'not_yet_approved' ) ;
#211 = CARTESIAN_POINT ( 'NONE',  ( 1.720272783635984097E-15, -6.033904677371575404E-17, 0.4927057076026013505 ) ) ;
#212 = CONICAL_SURFACE ( 'NONE', #123, 0.8199999999999942890, 1.029744258676649871 ) ;
#213 = AXIS2_PLACEMENT_3D ( 'NONE', #99, #67, #202 ) ;
#214 = EDGE_LOOP ( 'NONE', ( #42 ) ) ;
#215 = DIRECTION ( 'NONE',  ( -3.491481338843133355E-15, 1.224646799147353207E-16, -1.000000000000000000 ) ) ;
#216 =( GEOMETRIC_REPRESENTATION_CONTEXT ( 3 ) GLOBAL_UNCERTAINTY_ASSIGNED_CONTEXT ( ( #140 ) ) GLOBAL_UNIT_ASSIGNED_CONTEXT ( ( #92, #88, #72 ) ) REPRESENTATION_CONTEXT ( 'NONE', 'WORKASPACE' ) );
#217 = DIRECTION ( 'NONE',  ( 4.275831445896958607E-31, 1.000000000000000000, 1.224646799147353207E-16 ) ) ;
#218 = DIRECTION ( 'NONE',  ( -4.275831445896958607E-31, -1.000000000000000000, -1.224646799147353207E-16 ) ) ;
#219 = CC_DESIGN_PERSON_AND_ORGANIZATION_ASSIGNMENT ( #175, #4, ( #62 ) ) ;
#220 = DIRECTION ( 'NONE',  ( 0.0000000000000000000, 1.000000000000000000, 0.0000000000000000000 ) ) ;
#221 = CC_DESIGN_APPROVAL ( #96, ( #77 ) ) ;
#222 = DIRECTION ( 'NONE',  ( 0.0000000000000000000, -1.000000000000000000, 0.0000000000000000000 ) ) ;
#223 = DIRECTION ( 'NONE',  ( 0.0000000000000000000, 0.0000000000000000000, 1.000000000000000000 ) ) ;
ENDSEC;
END-ISO-10303-21;
