ISO-10303-21;
HEADER;
FILE_DESCRIPTION (( 'STEP AP203' ),
    '1' );
FILE_NAME ('41217.step',
    '2021-10-07T13:47:59',
    ( '' ),
    ( '' ),
    'SwSTEP 2.0',
    'SolidWorks 2019',
    '' );
FILE_SCHEMA (( 'CONFIG_CONTROL_DESIGN' ));
ENDSEC;

DATA;
#1 = FACE_OUTER_BOUND ( 'NONE', #148, .T. ) ;
#2 = APPROVAL_DATE_TIME ( #200, #91 ) ;
#3 = AXIS2_PLACEMENT_3D ( 'NONE', #181, #48, #194 ) ;
#4 = CARTESIAN_POINT ( 'NONE',  ( 0.0000000000000000000, 0.0000000000000000000, 0.0000000000000000000 ) ) ;
#5 = EDGE_CURVE ( 'NONE', #115, #115, #39, .T. ) ;
#6 = PRODUCT_DEFINITION_FORMATION_WITH_SPECIFIED_SOURCE ( 'ANY', '', #19, .NOT_KNOWN. ) ;
#7 = FACE_OUTER_BOUND ( 'NONE', #114, .T. ) ;
#8 = ADVANCED_FACE ( 'NONE', ( #1 ), #172, .F. ) ;
#9 = CARTESIAN_POINT ( 'NONE',  ( 1.319779946082704535E-13, -4.629164900776995227E-15, 37.79999999999999716 ) ) ;
#10 = DIRECTION ( 'NONE',  ( -3.491481338843133355E-15, 1.224646799147353207E-16, -1.000000000000000000 ) ) ;
#11 = PERSON_AND_ORGANIZATION ( #202, #45 ) ;
#12 = ADVANCED_BREP_SHAPE_REPRESENTATION ( '41217', ( #38, #106, #52 ), #208 ) ;
#13 = APPROVAL_STATUS ( 'not_yet_approved' ) ;
#14 = CARTESIAN_POINT ( 'NONE',  ( 4.189777606611760026E-14, -1.469576158976823947E-15, 12.00000000000000000 ) ) ;
#15 = CYLINDRICAL_SURFACE ( 'NONE', #18, 0.9499999999999947375 ) ;
#16 = PERSON_AND_ORGANIZATION_ROLE ( 'creator' ) ;
#17 = COORDINATED_UNIVERSAL_TIME_OFFSET ( 1, 0, .AHEAD. ) ;
#18 = AXIS2_PLACEMENT_3D ( 'NONE', #83, #50, #197 ) ;
#19 = PRODUCT ( '41217', '41217', '', ( #191 ) ) ;
#20 = AXIS2_PLACEMENT_3D ( 'NONE', #9, #10, #210 ) ;
#21 = CC_DESIGN_PERSON_AND_ORGANIZATION_ASSIGNMENT ( #11, #110, ( #19 ) ) ;
#22 = DIRECTION ( 'NONE',  ( 0.0000000000000000000, 1.000000000000000000, 0.0000000000000000000 ) ) ;
#23 = APPROVAL ( #13, 'UNSPECIFIED' ) ;
#24 = CONICAL_SURFACE ( 'NONE', #206, 0.8000000000000011546, 0.7853981633974507215 ) ;
#25 = DIRECTION ( 'NONE',  ( -3.491481338843133355E-15, 1.224646799147353207E-16, -1.000000000000000000 ) ) ;
#26 = PLANE ( 'NONE',  #3 ) ;
#27 = FACE_OUTER_BOUND ( 'NONE', #137, .T. ) ;
#28 = CARTESIAN_POINT ( 'NONE',  ( 0.0000000000000000000, 0.0000000000000000000, 0.0000000000000000000 ) ) ;
#29 = CONICAL_SURFACE ( 'NONE', #139, 0.9999999999999970024, 0.5235987755982864922 ) ;
#30 = VERTEX_POINT ( 'NONE', #76 ) ;
#31 = VERTEX_POINT ( 'NONE', #108 ) ;
#32 = CARTESIAN_POINT ( 'NONE',  ( 1.326762908760390423E-13, 5.999039130647368851E-33, 38.00000000000000000 ) ) ;
#33 = ORIENTED_EDGE ( 'NONE', *, *, #125, .T. ) ;
#34 = DATE_AND_TIME ( #129, #195 ) ;
#35 = PERSON_AND_ORGANIZATION ( #202, #45 ) ;
#36 = AXIS2_PLACEMENT_3D ( 'NONE', #88, #62, #93 ) ;
#37 = ADVANCED_FACE ( 'NONE', ( #7, #61 ), #43, .T. ) ;
#38 = MANIFOLD_SOLID_BREP ( 'Corps-Déplacer/Copier1[1]', #63 ) ;
#39 = CIRCLE ( 'NONE', #58, 0.8000000000000011546 ) ;
#40 = APPROVAL_PERSON_ORGANIZATION ( #138, #124, #205 ) ;
#41 = PRODUCT_RELATED_PRODUCT_CATEGORY ( 'detail', '', ( #19 ) ) ;
#42 = DIRECTION ( 'NONE',  ( 0.0000000000000000000, 1.000000000000000000, 0.0000000000000000000 ) ) ;
#43 = CYLINDRICAL_SURFACE ( 'NONE', #64, 0.9999999999999988898 ) ;
#44 = CARTESIAN_POINT ( 'NONE',  ( 1.992998956651445628E-15, -6.990499321345118944E-17, 0.5708175880761846566 ) ) ;
#45 = ORGANIZATION ( 'UNSPECIFIED', 'UNSPECIFIED', '' ) ;
#46 = DIRECTION ( 'NONE',  ( 0.0000000000000000000, 1.000000000000000000, 0.0000000000000000000 ) ) ;
#47 = UNCERTAINTY_MEASURE_WITH_UNIT (LENGTH_MEASURE( 1.000000000000000082E-05 ), #127, 'distance_accuracy_value', 'NONE');
#48 = DIRECTION ( 'NONE',  ( 3.491481338843133355E-15, -1.224646799147353207E-16, 1.000000000000000000 ) ) ;
#49 = ORIENTED_EDGE ( 'NONE', *, *, #100, .F. ) ;
#50 = DIRECTION ( 'NONE',  ( -3.491481338843133355E-15, 1.224646799147353207E-16, -1.000000000000000000 ) ) ;
#51 = EDGE_LOOP ( 'NONE', ( #81 ) ) ;
#52 = AXIS2_PLACEMENT_3D ( 'NONE', #28, #161, #177 ) ;
#53 = APPROVAL_DATE_TIME ( #101, #124 ) ;
#54 = ORIENTED_EDGE ( 'NONE', *, *, #218, .T. ) ;
#55 = PERSON_AND_ORGANIZATION ( #202, #45 ) ;
#56 = CALENDAR_DATE ( 2021, 7, 10 ) ;
#57 = CALENDAR_DATE ( 2021, 7, 10 ) ;
#58 = AXIS2_PLACEMENT_3D ( 'NONE', #70, #92, #42 ) ;
#59 = EDGE_CURVE ( 'NONE', #77, #77, #117, .T. ) ;
#60 = AXIS2_PLACEMENT_3D ( 'NONE', #104, #189, #22 ) ;
#61 = FACE_OUTER_BOUND ( 'NONE', #212, .T. ) ;
#62 = DIRECTION ( 'NONE',  ( -3.491481338843133355E-15, 1.224646799147353207E-16, -1.000000000000000000 ) ) ;
#63 = CLOSED_SHELL ( 'NONE', ( #8, #102, #37, #141, #74 ) ) ;
#64 = AXIS2_PLACEMENT_3D ( 'NONE', #4, #25, #123 ) ;
#65 = FACE_OUTER_BOUND ( 'NONE', #217, .T. ) ;
#66 = DIRECTION ( 'NONE',  ( -3.491481338843133355E-15, 1.224646799147353207E-16, -1.000000000000000000 ) ) ;
#67 = EDGE_LOOP ( 'NONE', ( #97 ) ) ;
#68 = CARTESIAN_POINT ( 'NONE',  ( 1.992998956651446022E-15, 0.9499999999999936273, 0.5708175880761847676 ) ) ;
#69 = ORIENTED_EDGE ( 'NONE', *, *, #100, .T. ) ;
#70 = CARTESIAN_POINT ( 'NONE',  ( 1.326762908760390423E-13, -4.653657836759941941E-15, 38.00000000000000000 ) ) ;
#71 = PERSON_AND_ORGANIZATION ( #202, #45 ) ;
#72 = ADVANCED_FACE ( 'NONE', ( #170, #65 ), #15, .T. ) ;
#73 = CALENDAR_DATE ( 2021, 7, 10 ) ;
#74 = ADVANCED_FACE ( 'NONE', ( #112 ), #116, .F. ) ;
#75 = LOCAL_TIME ( 15, 47, 59.00000000000000000, #85 ) ;
#76 = CARTESIAN_POINT ( 'NONE',  ( 1.319779946082704535E-13, 0.9999999999999963363, 37.79999999999999716 ) ) ;
#77 = VERTEX_POINT ( 'NONE', #82 ) ;
#78 = AXIS2_PLACEMENT_3D ( 'NONE', #187, #154, #185 ) ;
#79 = LOCAL_TIME ( 15, 47, 59.00000000000000000, #89 ) ;
#80 = CARTESIAN_POINT ( 'NONE',  ( 4.220014721974535701E-14, -1.480181911364073601E-15, 12.08660254037844872 ) ) ;
#81 = ORIENTED_EDGE ( 'NONE', *, *, #125, .F. ) ;
#82 = CARTESIAN_POINT ( 'NONE',  ( 4.189777606611760026E-14, 0.9499999999999942935, 12.00000000000000000 ) ) ;
#83 = CARTESIAN_POINT ( 'NONE',  ( 0.0000000000000000000, 0.0000000000000000000, 0.0000000000000000000 ) ) ;
#84 = DATE_TIME_ROLE ( 'creation_date' ) ;
#85 = COORDINATED_UNIVERSAL_TIME_OFFSET ( 1, 0, .AHEAD. ) ;
#86 = DATE_TIME_ROLE ( 'classification_date' ) ;
#87 = CC_DESIGN_APPROVAL ( #124, ( #164 ) ) ;
#88 = CARTESIAN_POINT ( 'NONE',  ( 1.992998956651445628E-15, -6.990499321345118944E-17, 0.5708175880761846566 ) ) ;
#89 = COORDINATED_UNIVERSAL_TIME_OFFSET ( 1, 0, .AHEAD. ) ;
#90 = SECURITY_CLASSIFICATION_LEVEL ( 'unclassified' ) ;
#91 = APPROVAL ( #168, 'UNSPECIFIED' ) ;
#92 = DIRECTION ( 'NONE',  ( -3.491481338843133355E-15, 1.224646799147353207E-16, -1.000000000000000000 ) ) ;
#93 = DIRECTION ( 'NONE',  ( 4.054589356604733840E-31, 1.000000000000000000, 1.141265444721591153E-16 ) ) ;
#94 = VERTEX_POINT ( 'NONE', #68 ) ;
#95 = PERSON_AND_ORGANIZATION ( #202, #45 ) ;
#96 = DIRECTION ( 'NONE',  ( 0.0000000000000000000, 1.000000000000000000, 0.0000000000000000000 ) ) ;
#97 = ORIENTED_EDGE ( 'NONE', *, *, #59, .F. ) ;
#98 = CALENDAR_DATE ( 2021, 7, 10 ) ;
#99 = CC_DESIGN_DATE_AND_TIME_ASSIGNMENT ( #198, #86, ( #164 ) ) ;
#100 = EDGE_CURVE ( 'NONE', #94, #94, #175, .T. ) ;
#101 = DATE_AND_TIME ( #57, #75 ) ;
#102 = ADVANCED_FACE ( 'NONE', ( #178, #27 ), #29, .T. ) ;
#103 = PERSON_AND_ORGANIZATION ( #202, #45 ) ;
#104 = CARTESIAN_POINT ( 'NONE',  ( 4.189777606611760026E-14, -1.469576158976823947E-15, 12.00000000000000000 ) ) ;
#105 = CC_DESIGN_SECURITY_CLASSIFICATION ( #164, ( #6 ) ) ;
#106 = MANIFOLD_SOLID_BREP ( 'Corps-Déplacer/Copier1[2]', #174 ) ;
#107 = AXIS2_PLACEMENT_3D ( 'NONE', #44, #180, #190 ) ;
#108 = CARTESIAN_POINT ( 'NONE',  ( 4.189777606611760026E-14, 0.9499999999999942935, 12.00000000000000000 ) ) ;
#109 = APPLICATION_PROTOCOL_DEFINITION ( 'international standard', 'config_control_design', 1994, #121 ) ;
#110 = PERSON_AND_ORGANIZATION_ROLE ( 'design_owner' ) ;
#111 = CONICAL_SURFACE ( 'NONE', #107, 0.9499999999999937383, 1.029744258676649649 ) ;
#112 = FACE_OUTER_BOUND ( 'NONE', #215, .T. ) ;
#113 = CARTESIAN_POINT ( 'NONE',  ( 1.326762908760390423E-13, -4.653657836759941941E-15, 38.00000000000000000 ) ) ;
#114 = EDGE_LOOP ( 'NONE', ( #153 ) ) ;
#115 = VERTEX_POINT ( 'NONE', #213 ) ;
#116 = PLANE ( 'NONE',  #119 ) ;
#117 = CIRCLE ( 'NONE', #60, 0.9499999999999957367 ) ;
#118 = ORIENTED_EDGE ( 'NONE', *, *, #59, .T. ) ;
#119 = AXIS2_PLACEMENT_3D ( 'NONE', #32, #143, #135 ) ;
#120 = ORIENTED_EDGE ( 'NONE', *, *, #5, .F. ) ;
#121 = APPLICATION_CONTEXT ( 'configuration controlled 3d designs of mechanical parts and assemblies' ) ;
#122 = AXIS2_PLACEMENT_3D ( 'NONE', #14, #142, #96 ) ;
#123 = DIRECTION ( 'NONE',  ( 4.275831445896957731E-31, 1.000000000000000000, 1.224646799147353454E-16 ) ) ;
#124 = APPROVAL ( #216, 'UNSPECIFIED' ) ;
#125 = EDGE_CURVE ( 'NONE', #30, #30, #155, .T. ) ;
#126 = CARTESIAN_POINT ( 'NONE',  ( 4.220014721974535701E-14, -1.480181911364073601E-15, 12.08660254037844872 ) ) ;
#127 =( LENGTH_UNIT ( ) NAMED_UNIT ( * ) SI_UNIT ( .MILLI., .METRE. ) );
#128 = CC_DESIGN_APPROVAL ( #23, ( #162 ) ) ;
#129 = CALENDAR_DATE ( 2021, 7, 10 ) ;
#130 = CC_DESIGN_APPROVAL ( #91, ( #6 ) ) ;
#131 = CARTESIAN_POINT ( 'NONE',  ( 4.220014721974535701E-14, 0.9999999999999954481, 12.08660254037844872 ) ) ;
#132 = FACE_OUTER_BOUND ( 'NONE', #51, .T. ) ;
#133 = ORIENTED_EDGE ( 'NONE', *, *, #218, .F. ) ;
#134 = DATE_AND_TIME ( #73, #79 ) ;
#135 = DIRECTION ( 'NONE',  ( 4.275831445896958607E-31, 1.000000000000000000, 1.224646799147353207E-16 ) ) ;
#136 = PERSON_AND_ORGANIZATION_ROLE ( 'classification_officer' ) ;
#137 = EDGE_LOOP ( 'NONE', ( #184 ) ) ;
#138 = PERSON_AND_ORGANIZATION ( #202, #45 ) ;
#139 = AXIS2_PLACEMENT_3D ( 'NONE', #126, #176, #163 ) ;
#140 = CC_DESIGN_PERSON_AND_ORGANIZATION_ASSIGNMENT ( #157, #219, ( #6 ) ) ;
#141 = ADVANCED_FACE ( 'NONE', ( #132, #192 ), #24, .T. ) ;
#142 = DIRECTION ( 'NONE',  ( -3.491481338843133355E-15, 1.224646799147353207E-16, -1.000000000000000000 ) ) ;
#143 = DIRECTION ( 'NONE',  ( -3.491481338843133355E-15, 1.224646799147353207E-16, -1.000000000000000000 ) ) ;
#144 =( NAMED_UNIT ( * ) PLANE_ANGLE_UNIT ( ) SI_UNIT ( $, .RADIAN. ) );
#145 = AXIS2_PLACEMENT_3D ( 'NONE', #80, #66, #46 ) ;
#146 = DIRECTION ( 'NONE',  ( -3.491481338843133355E-15, 1.224646799147353207E-16, -1.000000000000000000 ) ) ;
#147 = APPROVAL_ROLE ( '' ) ;
#148 = EDGE_LOOP ( 'NONE', ( #118 ) ) ;
#149 =( NAMED_UNIT ( * ) SI_UNIT ( $, .STERADIAN. ) SOLID_ANGLE_UNIT ( ) );
#150 = CC_DESIGN_DATE_AND_TIME_ASSIGNMENT ( #134, #84, ( #162 ) ) ;
#151 = ORIENTED_EDGE ( 'NONE', *, *, #5, .T. ) ;
#152 = APPROVAL_ROLE ( '' ) ;
#153 = ORIENTED_EDGE ( 'NONE', *, *, #182, .F. ) ;
#154 = DIRECTION ( 'NONE',  ( 3.491481338843133355E-15, -1.224646799147353207E-16, 1.000000000000000000 ) ) ;
#155 = CIRCLE ( 'NONE', #20, 1.000000000000000888 ) ;
#156 = PRODUCT_DEFINITION_SHAPE ( 'NONE', 'NONE',  #162 ) ;
#157 = PERSON_AND_ORGANIZATION ( #202, #45 ) ;
#158 = PERSON_AND_ORGANIZATION_ROLE ( 'creator' ) ;
#159 = APPROVAL_PERSON_ORGANIZATION ( #95, #23, #147 ) ;
#160 = APPLICATION_CONTEXT ( 'configuration controlled 3d designs of mechanical parts and assemblies' ) ;
#161 = DIRECTION ( 'NONE',  ( 0.0000000000000000000, 0.0000000000000000000, 1.000000000000000000 ) ) ;
#162 = PRODUCT_DEFINITION ( 'UNKNOWN', '', #6, #193 ) ;
#163 = DIRECTION ( 'NONE',  ( 0.0000000000000000000, -1.000000000000000000, 0.0000000000000000000 ) ) ;
#164 = SECURITY_CLASSIFICATION ( '', '', #90 ) ;
#165 = FACE_OUTER_BOUND ( 'NONE', #204, .T. ) ;
#166 = FACE_OUTER_BOUND ( 'NONE', #196, .T. ) ;
#167 = LOCAL_TIME ( 15, 47, 59.00000000000000000, #17 ) ;
#168 = APPROVAL_STATUS ( 'not_yet_approved' ) ;
#169 = SHAPE_DEFINITION_REPRESENTATION ( #156, #12 ) ;
#170 = FACE_OUTER_BOUND ( 'NONE', #199, .T. ) ;
#171 = LOCAL_TIME ( 15, 47, 59.00000000000000000, #222 ) ;
#172 = PLANE ( 'NONE',  #78 ) ;
#173 = CC_DESIGN_PERSON_AND_ORGANIZATION_ASSIGNMENT ( #103, #158, ( #162 ) ) ;
#174 = CLOSED_SHELL ( 'NONE', ( #203, #72, #186 ) ) ;
#175 = CIRCLE ( 'NONE', #36, 0.9499999999999937383 ) ;
#176 = DIRECTION ( 'NONE',  ( 3.491481338843133355E-15, -1.224646799147353207E-16, 1.000000000000000000 ) ) ;
#177 = DIRECTION ( 'NONE',  ( 1.000000000000000000, 0.0000000000000000000, 0.0000000000000000000 ) ) ;
#178 = FACE_BOUND ( 'NONE', #67, .T. ) ;
#179 = APPLICATION_PROTOCOL_DEFINITION ( 'international standard', 'config_control_design', 1994, #160 ) ;
#180 = DIRECTION ( 'NONE',  ( 3.491481338843133355E-15, -1.224646799147353207E-16, 1.000000000000000000 ) ) ;
#181 = CARTESIAN_POINT ( 'NONE',  ( 4.189777606611760026E-14, 7.123858967643768899E-33, 12.00000000000000000 ) ) ;
#182 = EDGE_CURVE ( 'NONE', #207, #207, #183, .T. ) ;
#183 = CIRCLE ( 'NONE', #145, 0.9999999999999970024 ) ;
#184 = ORIENTED_EDGE ( 'NONE', *, *, #182, .T. ) ;
#185 = DIRECTION ( 'NONE',  ( -4.275831445896958607E-31, -1.000000000000000000, -1.224646799147353207E-16 ) ) ;
#186 = ADVANCED_FACE ( 'NONE', ( #165 ), #26, .T. ) ;
#187 = CARTESIAN_POINT ( 'NONE',  ( 4.189777606611760026E-14, 7.123858967643768899E-33, 12.00000000000000000 ) ) ;
#188 = CC_DESIGN_PERSON_AND_ORGANIZATION_ASSIGNMENT ( #71, #16, ( #6 ) ) ;
#189 = DIRECTION ( 'NONE',  ( -3.491481338843133355E-15, 1.224646799147353207E-16, -1.000000000000000000 ) ) ;
#190 = DIRECTION ( 'NONE',  ( -4.054589356604733840E-31, -1.000000000000000000, -1.141265444721591153E-16 ) ) ;
#191 = MECHANICAL_CONTEXT ( 'NONE', #121, 'mechanical' ) ;
#192 = FACE_BOUND ( 'NONE', #220, .T. ) ;
#193 = DESIGN_CONTEXT ( 'detailed design', #160, 'design' ) ;
#194 = DIRECTION ( 'NONE',  ( -4.275831445896958607E-31, -1.000000000000000000, -1.224646799147353207E-16 ) ) ;
#195 = LOCAL_TIME ( 15, 47, 59.00000000000000000, #211 ) ;
#196 = EDGE_LOOP ( 'NONE', ( #69 ) ) ;
#197 = DIRECTION ( 'NONE',  ( 4.275831445896958607E-31, 1.000000000000000000, 1.224646799147353207E-16 ) ) ;
#198 = DATE_AND_TIME ( #56, #171 ) ;
#199 = EDGE_LOOP ( 'NONE', ( #49 ) ) ;
#200 = DATE_AND_TIME ( #98, #167 ) ;
#201 = APPROVAL_PERSON_ORGANIZATION ( #55, #91, #152 ) ;
#202 = PERSON ( 'UNSPECIFIED', 'UNSPECIFIED', 'UNSPECIFIED', ('UNSPECIFIED'), ('UNSPECIFIED'), ('UNSPECIFIED') ) ;
#203 = ADVANCED_FACE ( 'NONE', ( #166 ), #111, .T. ) ;
#204 = EDGE_LOOP ( 'NONE', ( #133 ) ) ;
#205 = APPROVAL_ROLE ( '' ) ;
#206 = AXIS2_PLACEMENT_3D ( 'NONE', #113, #146, #209 ) ;
#207 = VERTEX_POINT ( 'NONE', #131 ) ;
#208 =( GEOMETRIC_REPRESENTATION_CONTEXT ( 3 ) GLOBAL_UNCERTAINTY_ASSIGNED_CONTEXT ( ( #47 ) ) GLOBAL_UNIT_ASSIGNED_CONTEXT ( ( #127, #144, #149 ) ) REPRESENTATION_CONTEXT ( 'NONE', 'WORKASPACE' ) );
#209 = DIRECTION ( 'NONE',  ( 0.0000000000000000000, 1.000000000000000000, 0.0000000000000000000 ) ) ;
#210 = DIRECTION ( 'NONE',  ( 0.0000000000000000000, 1.000000000000000000, 0.0000000000000000000 ) ) ;
#211 = COORDINATED_UNIVERSAL_TIME_OFFSET ( 1, 0, .AHEAD. ) ;
#212 = EDGE_LOOP ( 'NONE', ( #33 ) ) ;
#213 = CARTESIAN_POINT ( 'NONE',  ( 1.326762908760390423E-13, 0.7999999999999964917, 38.00000000000000000 ) ) ;
#214 = CIRCLE ( 'NONE', #122, 0.9499999999999957367 ) ;
#215 = EDGE_LOOP ( 'NONE', ( #120 ) ) ;
#216 = APPROVAL_STATUS ( 'not_yet_approved' ) ;
#217 = EDGE_LOOP ( 'NONE', ( #54 ) ) ;
#218 = EDGE_CURVE ( 'NONE', #31, #31, #214, .T. ) ;
#219 = PERSON_AND_ORGANIZATION_ROLE ( 'design_supplier' ) ;
#220 = EDGE_LOOP ( 'NONE', ( #151 ) ) ;
#221 = APPROVAL_DATE_TIME ( #34, #23 ) ;
#222 = COORDINATED_UNIVERSAL_TIME_OFFSET ( 1, 0, .AHEAD. ) ;
#223 = CC_DESIGN_PERSON_AND_ORGANIZATION_ASSIGNMENT ( #35, #136, ( #164 ) ) ;
ENDSEC;
END-ISO-10303-21;
