ISO-10303-21;
HEADER;
FILE_DESCRIPTION (( 'STEP AP203' ),
    '1' );
FILE_NAME ('41150.step',
    '2021-10-06T08:24:51',
    ( '' ),
    ( '' ),
    'SwSTEP 2.0',
    'SolidWorks 2019',
    '' );
FILE_SCHEMA (( 'CONFIG_CONTROL_DESIGN' ));
ENDSEC;

DATA;
#1 = FACE_OUTER_BOUND ( 'NONE', #178, .T. ) ;
#2 = EDGE_LOOP ( 'NONE', ( #145 ) ) ;
#3 = CC_DESIGN_DATE_AND_TIME_ASSIGNMENT ( #105, #22, ( #154 ) ) ;
#4 = MECHANICAL_CONTEXT ( 'NONE', #146, 'mechanical' ) ;
#5 = DIRECTION ( 'NONE',  ( 0.0000000000000000000, 1.000000000000000000, 0.0000000000000000000 ) ) ;
#6 = CARTESIAN_POINT ( 'NONE',  ( 1.047444401652940007E-13, 0.3999999999999963030, 30.00000000000000000 ) ) ;
#7 = CALENDAR_DATE ( 2021, 6, 10 ) ;
#8 = LOCAL_TIME ( 10, 24, 51.00000000000000000, #137 ) ;
#9 = PERSON_AND_ORGANIZATION_ROLE ( 'creator' ) ;
#10 = ORIENTED_EDGE ( 'NONE', *, *, #121, .T. ) ;
#11 = DIRECTION ( 'NONE',  ( 3.491481338843133355E-15, -1.224646799147353207E-16, 1.000000000000000000 ) ) ;
#12 = DIRECTION ( 'NONE',  ( 3.491481338843133355E-15, -1.224646799147353207E-16, 1.000000000000000000 ) ) ;
#13 = EDGE_LOOP ( 'NONE', ( #201 ) ) ;
#14 = VERTEX_POINT ( 'NONE', #118 ) ;
#15 = CIRCLE ( 'NONE', #87, 0.3999999999999999667 ) ;
#16 = FACE_OUTER_BOUND ( 'NONE', #142, .T. ) ;
#17 = CARTESIAN_POINT ( 'NONE',  ( 0.0000000000000000000, 0.0000000000000000000, 0.0000000000000000000 ) ) ;
#18 = DIRECTION ( 'NONE',  ( -3.209883240645412940E-31, -1.000000000000000000, -9.035018104045926161E-17 ) ) ;
#19 = AXIS2_PLACEMENT_3D ( 'NONE', #17, #122, #133 ) ;
#20 = FACE_OUTER_BOUND ( 'NONE', #78, .T. ) ;
#21 = APPROVAL_ROLE ( '' ) ;
#22 = DATE_TIME_ROLE ( 'classification_date' ) ;
#23 = PERSON_AND_ORGANIZATION ( #190, #31 ) ;
#24 = CLOSED_SHELL ( 'NONE', ( #99, #103, #81 ) ) ;
#25 = PERSON_AND_ORGANIZATION ( #190, #31 ) ;
#26 = CARTESIAN_POINT ( 'NONE',  ( 2.793185071074506684E-14, -9.797174393178825657E-16, 8.000000000000000000 ) ) ;
#27 = APPROVAL ( #170, 'UNSPECIFIED' ) ;
#28 = UNCERTAINTY_MEASURE_WITH_UNIT (LENGTH_MEASURE( 1.000000000000000082E-05 ), #148, 'distance_accuracy_value', 'NONE');
#29 = ORIENTED_EDGE ( 'NONE', *, *, #63, .T. ) ;
#30 = CARTESIAN_POINT ( 'NONE',  ( 2.793185071074506684E-14, 4.499279347985538612E-33, 8.000000000000000000 ) ) ;
#31 = ORGANIZATION ( 'UNSPECIFIED', 'UNSPECIFIED', '' ) ;
#32 = CARTESIAN_POINT ( 'NONE',  ( 1.047444401652940007E-13, 2.999519565323659793E-33, 30.00000000000000000 ) ) ;
#33 = ADVANCED_FACE ( 'NONE', ( #62 ), #130, .F. ) ;
#34 = PLANE ( 'NONE',  #46 ) ;
#35 = CC_DESIGN_PERSON_AND_ORGANIZATION_ASSIGNMENT ( #89, #182, ( #154 ) ) ;
#36 = APPROVAL_DATE_TIME ( #167, #152 ) ;
#37 = COORDINATED_UNIVERSAL_TIME_OFFSET ( 1, 0, .AHEAD. ) ;
#38 = ADVANCED_FACE ( 'NONE', ( #1, #132 ), #134, .T. ) ;
#39 = CALENDAR_DATE ( 2021, 6, 10 ) ;
#40 = PRODUCT ( '41150', '41150', '', ( #4 ) ) ;
#41 =( GEOMETRIC_REPRESENTATION_CONTEXT ( 3 ) GLOBAL_UNCERTAINTY_ASSIGNED_CONTEXT ( ( #28 ) ) GLOBAL_UNIT_ASSIGNED_CONTEXT ( ( #148, #98, #180 ) ) REPRESENTATION_CONTEXT ( 'NONE', 'WORKASPACE' ) );
#42 = ORIENTED_EDGE ( 'NONE', *, *, #94, .T. ) ;
#43 = CARTESIAN_POINT ( 'NONE',  ( 2.793185071074506684E-14, 0.5999999999999963141, 8.000000000000000000 ) ) ;
#44 = DIRECTION ( 'NONE',  ( -3.491481338843133355E-15, 1.224646799147353207E-16, -1.000000000000000000 ) ) ;
#45 = DIRECTION ( 'NONE',  ( 3.491481338843133355E-15, -1.224646799147353207E-16, 1.000000000000000000 ) ) ;
#46 = AXIS2_PLACEMENT_3D ( 'NONE', #32, #194, #97 ) ;
#47 = DIRECTION ( 'NONE',  ( 3.209883240645412940E-31, 1.000000000000000000, 9.035018104045926161E-17 ) ) ;
#48 = DIRECTION ( 'NONE',  ( -3.491481338843133355E-15, 1.224646799147353207E-16, -1.000000000000000000 ) ) ;
#49 = APPLICATION_CONTEXT ( 'configuration controlled 3d designs of mechanical parts and assemblies' ) ;
#50 = MANIFOLD_SOLID_BREP ( 'Corps-Déplacer/Copier1[2]', #24 ) ;
#51 = MANIFOLD_SOLID_BREP ( 'Corps-Déplacer/Copier1[1]', #173 ) ;
#52 = DATE_AND_TIME ( #7, #162 ) ;
#53 = APPROVAL_PERSON_ORGANIZATION ( #23, #27, #168 ) ;
#54 = DESIGN_CONTEXT ( 'detailed design', #49, 'design' ) ;
#55 = PERSON_AND_ORGANIZATION ( #190, #31 ) ;
#56 = SHAPE_DEFINITION_REPRESENTATION ( #202, #70 ) ;
#57 = COORDINATED_UNIVERSAL_TIME_OFFSET ( 1, 0, .AHEAD. ) ;
#58 = AXIS2_PLACEMENT_3D ( 'NONE', #196, #85, #161 ) ;
#59 = CC_DESIGN_PERSON_AND_ORGANIZATION_ASSIGNMENT ( #199, #153, ( #125 ) ) ;
#60 = CARTESIAN_POINT ( 'NONE',  ( 1.047444401652940007E-13, -3.673940397442059178E-15, 30.00000000000000000 ) ) ;
#61 = EDGE_LOOP ( 'NONE', ( #10 ) ) ;
#62 = FACE_OUTER_BOUND ( 'NONE', #113, .T. ) ;
#63 = EDGE_CURVE ( 'NONE', #117, #117, #112, .T. ) ;
#64 = DIRECTION ( 'NONE',  ( 0.0000000000000000000, 1.000000000000000000, 0.0000000000000000000 ) ) ;
#65 = AXIS2_PLACEMENT_3D ( 'NONE', #149, #48, #64 ) ;
#66 = FACE_OUTER_BOUND ( 'NONE', #96, .T. ) ;
#67 = CARTESIAN_POINT ( 'NONE',  ( 1.209484614510988912E-15, -4.242300954899649353E-17, 0.3464101615137772372 ) ) ;
#68 = VERTEX_POINT ( 'NONE', #120 ) ;
#69 = CIRCLE ( 'NONE', #157, 0.5999999999999999778 ) ;
#70 = ADVANCED_BREP_SHAPE_REPRESENTATION ( '41150', ( #51, #50, #188 ), #41 ) ;
#71 = CALENDAR_DATE ( 2021, 6, 10 ) ;
#72 = CC_DESIGN_APPROVAL ( #27, ( #140 ) ) ;
#73 = COORDINATED_UNIVERSAL_TIME_OFFSET ( 1, 0, .AHEAD. ) ;
#74 = EDGE_CURVE ( 'NONE', #160, #160, #69, .T. ) ;
#75 = APPROVAL_STATUS ( 'not_yet_approved' ) ;
#76 = APPLICATION_PROTOCOL_DEFINITION ( 'international standard', 'config_control_design', 1994, #49 ) ;
#77 = AXIS2_PLACEMENT_3D ( 'NONE', #136, #45, #18 ) ;
#78 = EDGE_LOOP ( 'NONE', ( #159 ) ) ;
#79 = DIRECTION ( 'NONE',  ( -4.275831445896958607E-31, -1.000000000000000000, -1.224646799147353207E-16 ) ) ;
#80 = CC_DESIGN_SECURITY_CLASSIFICATION ( #154, ( #125 ) ) ;
#81 = ADVANCED_FACE ( 'NONE', ( #158 ), #129, .T. ) ;
#82 = ORIENTED_EDGE ( 'NONE', *, *, #127, .T. ) ;
#83 = AXIS2_PLACEMENT_3D ( 'NONE', #60, #128, #147 ) ;
#84 = CARTESIAN_POINT ( 'NONE',  ( 1.040461438975253740E-13, 0.5999999999999963141, 29.80000000000000071 ) ) ;
#85 = DIRECTION ( 'NONE',  ( -3.491481338843133355E-15, 1.224646799147353207E-16, -1.000000000000000000 ) ) ;
#86 = FACE_OUTER_BOUND ( 'NONE', #92, .T. ) ;
#87 = AXIS2_PLACEMENT_3D ( 'NONE', #179, #192, #5 ) ;
#88 = APPROVAL_DATE_TIME ( #171, #172 ) ;
#89 = PERSON_AND_ORGANIZATION ( #190, #31 ) ;
#90 = DATE_AND_TIME ( #71, #200 ) ;
#91 = PERSON_AND_ORGANIZATION_ROLE ( 'design_owner' ) ;
#92 = EDGE_LOOP ( 'NONE', ( #82 ) ) ;
#93 = EDGE_LOOP ( 'NONE', ( #42 ) ) ;
#94 = EDGE_CURVE ( 'NONE', #68, #68, #198, .T. ) ;
#95 = CARTESIAN_POINT ( 'NONE',  ( 2.793185071074506684E-14, 4.499279347985538612E-33, 8.000000000000000000 ) ) ;
#96 = EDGE_LOOP ( 'NONE', ( #203 ) ) ;
#97 = DIRECTION ( 'NONE',  ( 4.275831445896958607E-31, 1.000000000000000000, 1.224646799147353207E-16 ) ) ;
#98 =( NAMED_UNIT ( * ) PLANE_ANGLE_UNIT ( ) SI_UNIT ( $, .RADIAN. ) );
#99 = ADVANCED_FACE ( 'NONE', ( #101 ), #104, .T. ) ;
#100 = LOCAL_TIME ( 10, 24, 51.00000000000000000, #57 ) ;
#101 = FACE_OUTER_BOUND ( 'NONE', #93, .T. ) ;
#102 = DIRECTION ( 'NONE',  ( 1.000000000000000000, 0.0000000000000000000, 0.0000000000000000000 ) ) ;
#103 = ADVANCED_FACE ( 'NONE', ( #163, #86 ), #191, .T. ) ;
#104 = CONICAL_SURFACE ( 'NONE', #77, 0.5999999999999963141, 1.047197551196592968 ) ;
#105 = DATE_AND_TIME ( #197, #141 ) ;
#106 = CC_DESIGN_PERSON_AND_ORGANIZATION_ASSIGNMENT ( #166, #126, ( #125 ) ) ;
#107 = DATE_TIME_ROLE ( 'creation_date' ) ;
#108 = PERSON_AND_ORGANIZATION ( #190, #31 ) ;
#109 = APPROVAL_DATE_TIME ( #52, #27 ) ;
#110 = PERSON_AND_ORGANIZATION ( #190, #31 ) ;
#111 = DIRECTION ( 'NONE',  ( -4.275831445896958607E-31, -1.000000000000000000, -1.224646799147353207E-16 ) ) ;
#112 = CIRCLE ( 'NONE', #177, 0.5999999999999973133 ) ;
#113 = EDGE_LOOP ( 'NONE', ( #29 ) ) ;
#114 = ADVANCED_FACE ( 'NONE', ( #66, #20 ), #150, .T. ) ;
#115 = DIRECTION ( 'NONE',  ( -3.491481338843133355E-15, 1.224646799147353207E-16, -1.000000000000000000 ) ) ;
#116 = AXIS2_PLACEMENT_3D ( 'NONE', #95, #12, #111 ) ;
#117 = VERTEX_POINT ( 'NONE', #43 ) ;
#118 = CARTESIAN_POINT ( 'NONE',  ( 2.793185071074506684E-14, 0.5999999999999963141, 8.000000000000000000 ) ) ;
#119 = APPROVAL_PERSON_ORGANIZATION ( #55, #152, #21 ) ;
#120 = CARTESIAN_POINT ( 'NONE',  ( 1.209484614510989109E-15, 0.5999999999999963141, 0.3464101615137772927 ) ) ;
#121 = EDGE_CURVE ( 'NONE', #165, #165, #15, .T. ) ;
#122 = DIRECTION ( 'NONE',  ( -3.491481338843133355E-15, 1.224646799147353207E-16, -1.000000000000000000 ) ) ;
#123 = APPROVAL_ROLE ( '' ) ;
#124 = CC_DESIGN_DATE_AND_TIME_ASSIGNMENT ( #90, #107, ( #140 ) ) ;
#125 = PRODUCT_DEFINITION_FORMATION_WITH_SPECIFIED_SOURCE ( 'ANY', '', #40, .NOT_KNOWN. ) ;
#126 = PERSON_AND_ORGANIZATION_ROLE ( 'design_supplier' ) ;
#127 = EDGE_CURVE ( 'NONE', #14, #14, #184, .T. ) ;
#128 = DIRECTION ( 'NONE',  ( -3.491481338843133355E-15, 1.224646799147353207E-16, -1.000000000000000000 ) ) ;
#129 = PLANE ( 'NONE',  #116 ) ;
#130 = PLANE ( 'NONE',  #151 ) ;
#131 = CARTESIAN_POINT ( 'NONE',  ( 1.040461438975253740E-13, -3.649447461459112464E-15, 29.80000000000000071 ) ) ;
#132 = FACE_BOUND ( 'NONE', #61, .T. ) ;
#133 = DIRECTION ( 'NONE',  ( 4.275831445896959482E-31, 1.000000000000000000, 1.224646799147353207E-16 ) ) ;
#134 = CONICAL_SURFACE ( 'NONE', #83, 0.3999999999999999667, 0.7853981633974512766 ) ;
#135 = DIRECTION ( 'NONE',  ( 0.0000000000000000000, 0.0000000000000000000, 1.000000000000000000 ) ) ;
#136 = CARTESIAN_POINT ( 'NONE',  ( 1.209484614510988912E-15, -4.242300954899649353E-17, 0.3464101615137772372 ) ) ;
#137 = COORDINATED_UNIVERSAL_TIME_OFFSET ( 1, 0, .AHEAD. ) ;
#138 = SECURITY_CLASSIFICATION_LEVEL ( 'unclassified' ) ;
#139 = CALENDAR_DATE ( 2021, 6, 10 ) ;
#140 = PRODUCT_DEFINITION ( 'UNKNOWN', '', #125, #54 ) ;
#141 = LOCAL_TIME ( 10, 24, 51.00000000000000000, #73 ) ;
#142 = EDGE_LOOP ( 'NONE', ( #143 ) ) ;
#143 = ORIENTED_EDGE ( 'NONE', *, *, #121, .F. ) ;
#144 = AXIS2_PLACEMENT_3D ( 'NONE', #67, #44, #47 ) ;
#145 = ORIENTED_EDGE ( 'NONE', *, *, #94, .F. ) ;
#146 = APPLICATION_CONTEXT ( 'configuration controlled 3d designs of mechanical parts and assemblies' ) ;
#147 = DIRECTION ( 'NONE',  ( 0.0000000000000000000, 1.000000000000000000, 0.0000000000000000000 ) ) ;
#148 =( LENGTH_UNIT ( ) NAMED_UNIT ( * ) SI_UNIT ( .MILLI., .METRE. ) );
#149 = CARTESIAN_POINT ( 'NONE',  ( 2.793185071074506684E-14, -9.797174393178825657E-16, 8.000000000000000000 ) ) ;
#150 = CYLINDRICAL_SURFACE ( 'NONE', #19, 0.5999999999999986455 ) ;
#151 = AXIS2_PLACEMENT_3D ( 'NONE', #30, #11, #79 ) ;
#152 = APPROVAL ( #75, 'UNSPECIFIED' ) ;
#153 = PERSON_AND_ORGANIZATION_ROLE ( 'creator' ) ;
#154 = SECURITY_CLASSIFICATION ( '', '', #138 ) ;
#155 = ADVANCED_FACE ( 'NONE', ( #16 ), #34, .F. ) ;
#156 = CC_DESIGN_PERSON_AND_ORGANIZATION_ASSIGNMENT ( #25, #9, ( #140 ) ) ;
#157 = AXIS2_PLACEMENT_3D ( 'NONE', #131, #115, #187 ) ;
#158 = FACE_OUTER_BOUND ( 'NONE', #13, .T. ) ;
#159 = ORIENTED_EDGE ( 'NONE', *, *, #74, .T. ) ;
#160 = VERTEX_POINT ( 'NONE', #84 ) ;
#161 = DIRECTION ( 'NONE',  ( 4.275831445896958607E-31, 1.000000000000000000, 1.224646799147353207E-16 ) ) ;
#162 = LOCAL_TIME ( 10, 24, 51.00000000000000000, #37 ) ;
#163 = FACE_OUTER_BOUND ( 'NONE', #2, .T. ) ;
#164 = APPLICATION_PROTOCOL_DEFINITION ( 'international standard', 'config_control_design', 1994, #146 ) ;
#165 = VERTEX_POINT ( 'NONE', #6 ) ;
#166 = PERSON_AND_ORGANIZATION ( #190, #31 ) ;
#167 = DATE_AND_TIME ( #139, #100 ) ;
#168 = APPROVAL_ROLE ( '' ) ;
#169 = CC_DESIGN_APPROVAL ( #152, ( #125 ) ) ;
#170 = APPROVAL_STATUS ( 'not_yet_approved' ) ;
#171 = DATE_AND_TIME ( #39, #8 ) ;
#172 = APPROVAL ( #186, 'UNSPECIFIED' ) ;
#173 = CLOSED_SHELL ( 'NONE', ( #33, #114, #38, #155 ) ) ;
#174 = DIRECTION ( 'NONE',  ( -3.491481338843133355E-15, 1.224646799147353207E-16, -1.000000000000000000 ) ) ;
#175 = ORIENTED_EDGE ( 'NONE', *, *, #74, .F. ) ;
#176 = CC_DESIGN_PERSON_AND_ORGANIZATION_ASSIGNMENT ( #110, #91, ( #40 ) ) ;
#177 = AXIS2_PLACEMENT_3D ( 'NONE', #26, #174, #189 ) ;
#178 = EDGE_LOOP ( 'NONE', ( #175 ) ) ;
#179 = CARTESIAN_POINT ( 'NONE',  ( 1.047444401652940007E-13, -3.673940397442059178E-15, 30.00000000000000000 ) ) ;
#180 =( NAMED_UNIT ( * ) SI_UNIT ( $, .STERADIAN. ) SOLID_ANGLE_UNIT ( ) );
#181 = APPROVAL_PERSON_ORGANIZATION ( #108, #172, #123 ) ;
#182 = PERSON_AND_ORGANIZATION_ROLE ( 'classification_officer' ) ;
#183 = COORDINATED_UNIVERSAL_TIME_OFFSET ( 1, 0, .AHEAD. ) ;
#184 = CIRCLE ( 'NONE', #65, 0.5999999999999973133 ) ;
#185 = PRODUCT_RELATED_PRODUCT_CATEGORY ( 'detail', '', ( #40 ) ) ;
#186 = APPROVAL_STATUS ( 'not_yet_approved' ) ;
#187 = DIRECTION ( 'NONE',  ( 0.0000000000000000000, 1.000000000000000000, 0.0000000000000000000 ) ) ;
#188 = AXIS2_PLACEMENT_3D ( 'NONE', #193, #135, #102 ) ;
#189 = DIRECTION ( 'NONE',  ( 0.0000000000000000000, 1.000000000000000000, 0.0000000000000000000 ) ) ;
#190 = PERSON ( 'UNSPECIFIED', 'UNSPECIFIED', 'UNSPECIFIED', ('UNSPECIFIED'), ('UNSPECIFIED'), ('UNSPECIFIED') ) ;
#191 = CYLINDRICAL_SURFACE ( 'NONE', #58, 0.5999999999999967581 ) ;
#192 = DIRECTION ( 'NONE',  ( -3.491481338843133355E-15, 1.224646799147353207E-16, -1.000000000000000000 ) ) ;
#193 = CARTESIAN_POINT ( 'NONE',  ( 0.0000000000000000000, 0.0000000000000000000, 0.0000000000000000000 ) ) ;
#194 = DIRECTION ( 'NONE',  ( -3.491481338843133355E-15, 1.224646799147353207E-16, -1.000000000000000000 ) ) ;
#195 = CC_DESIGN_APPROVAL ( #172, ( #154 ) ) ;
#196 = CARTESIAN_POINT ( 'NONE',  ( 0.0000000000000000000, 0.0000000000000000000, 0.0000000000000000000 ) ) ;
#197 = CALENDAR_DATE ( 2021, 6, 10 ) ;
#198 = CIRCLE ( 'NONE', #144, 0.5999999999999963141 ) ;
#199 = PERSON_AND_ORGANIZATION ( #190, #31 ) ;
#200 = LOCAL_TIME ( 10, 24, 51.00000000000000000, #183 ) ;
#201 = ORIENTED_EDGE ( 'NONE', *, *, #127, .F. ) ;
#202 = PRODUCT_DEFINITION_SHAPE ( 'NONE', 'NONE',  #140 ) ;
#203 = ORIENTED_EDGE ( 'NONE', *, *, #63, .F. ) ;
ENDSEC;
END-ISO-10303-21;
