ISO-10303-21;
HEADER;
FILE_DESCRIPTION (( 'STEP AP203' ),
    '1' );
FILE_NAME ('41135.step',
    '2021-11-09T08:31:32',
    ( '' ),
    ( '' ),
    'SwSTEP 2.0',
    'SolidWorks 2019',
    '' );
FILE_SCHEMA (( 'CONFIG_CONTROL_DESIGN' ));
ENDSEC;

DATA;
#1 = FACE_BOUND ( 'NONE', #31, .T. ) ;
#2 = DIRECTION ( 'NONE',  ( 0.0000000000000000000, 1.000000000000000000, 0.0000000000000000000 ) ) ;
#3 = DIRECTION ( 'NONE',  ( 4.275831445896958607E-31, 1.000000000000000000, 1.224646799147353207E-16 ) ) ;
#4 = DIRECTION ( 'NONE',  ( 3.491481338843133355E-15, -1.224646799147353207E-16, 1.000000000000000000 ) ) ;
#5 = ORIENTED_EDGE ( 'NONE', *, *, #14, .T. ) ;
#6 = CC_DESIGN_PERSON_AND_ORGANIZATION_ASSIGNMENT ( #114, #164, ( #74 ) ) ;
#7 = COORDINATED_UNIVERSAL_TIME_OFFSET ( 1, 0, .AHEAD. ) ;
#8 = DATE_AND_TIME ( #113, #18 ) ;
#9 = ORGANIZATION ( 'UNSPECIFIED', 'UNSPECIFIED', '' ) ;
#10 = DIRECTION ( 'NONE',  ( 1.000000000000000000, 0.0000000000000000000, 0.0000000000000000000 ) ) ;
#11 = AXIS2_PLACEMENT_3D ( 'NONE', #104, #146, #72 ) ;
#12 = UNCERTAINTY_MEASURE_WITH_UNIT (LENGTH_MEASURE( 1.000000000000000082E-05 ), #77, 'distance_accuracy_value', 'NONE');
#13 = CIRCLE ( 'NONE', #179, 2.249999999999996447 ) ;
#14 = EDGE_CURVE ( 'NONE', #173, #173, #62, .T. ) ;
#15 = FACE_OUTER_BOUND ( 'NONE', #121, .T. ) ;
#16 = CARTESIAN_POINT ( 'NONE',  ( 0.0000000000000000000, 0.0000000000000000000, 0.0000000000000000000 ) ) ;
#17 = DIRECTION ( 'NONE',  ( -3.491481338843133355E-15, 1.224646799147353207E-16, -1.000000000000000000 ) ) ;
#18 = LOCAL_TIME ( 9, 31, 32.00000000000000000, #7 ) ;
#19 = EDGE_LOOP ( 'NONE', ( #5 ) ) ;
#20 = CARTESIAN_POINT ( 'NONE',  ( 1.731774744066194397E-13, -6.074248123770872657E-15, 49.60000000000000853 ) ) ;
#21 = ORIENTED_EDGE ( 'NONE', *, *, #49, .T. ) ;
#22 = EDGE_LOOP ( 'NONE', ( #120 ) ) ;
#23 = AXIS2_PLACEMENT_3D ( 'NONE', #20, #85, #71 ) ;
#24 = ADVANCED_FACE ( 'NONE', ( #123, #193 ), #174, .T. ) ;
#25 = APPROVAL_STATUS ( 'not_yet_approved' ) ;
#26 = PERSON_AND_ORGANIZATION ( #42, #9 ) ;
#27 =( GEOMETRIC_REPRESENTATION_CONTEXT ( 3 ) GLOBAL_UNCERTAINTY_ASSIGNED_CONTEXT ( ( #12 ) ) GLOBAL_UNIT_ASSIGNED_CONTEXT ( ( #77, #199, #65 ) ) REPRESENTATION_CONTEXT ( 'NONE', 'WORKASPACE' ) );
#28 = VERTEX_POINT ( 'NONE', #143 ) ;
#29 = ADVANCED_FACE ( 'NONE', ( #35, #59 ), #98, .T. ) ;
#30 = CONICAL_SURFACE ( 'NONE', #140, 1.850000000000000977, 0.7853981633974516097 ) ;
#31 = EDGE_LOOP ( 'NONE', ( #109 ) ) ;
#32 = DIRECTION ( 'NONE',  ( 4.275831445896958607E-31, 1.000000000000000000, 1.224646799147352961E-16 ) ) ;
#33 = EDGE_LOOP ( 'NONE', ( #87 ) ) ;
#34 = FACE_OUTER_BOUND ( 'NONE', #54, .T. ) ;
#35 = FACE_OUTER_BOUND ( 'NONE', #33, .T. ) ;
#36 = CARTESIAN_POINT ( 'NONE',  ( 1.731774744066194397E-13, 2.249999999999995115, 49.60000000000000853 ) ) ;
#37 = LOCAL_TIME ( 9, 31, 32.00000000000000000, #45 ) ;
#38 = CARTESIAN_POINT ( 'NONE',  ( 4.189777606611760026E-14, 2.249999999999995115, 12.00000000000000000 ) ) ;
#39 = PERSON_AND_ORGANIZATION ( #42, #9 ) ;
#40 = CIRCLE ( 'NONE', #11, 1.850000000000000977 ) ;
#41 = DATE_AND_TIME ( #180, #60 ) ;
#42 = PERSON ( 'UNSPECIFIED', 'UNSPECIFIED', 'UNSPECIFIED', ('UNSPECIFIED'), ('UNSPECIFIED'), ('UNSPECIFIED') ) ;
#43 = CIRCLE ( 'NONE', #135, 2.249999999999995115 ) ;
#44 = PERSON_AND_ORGANIZATION_ROLE ( 'design_supplier' ) ;
#45 = COORDINATED_UNIVERSAL_TIME_OFFSET ( 1, 0, .AHEAD. ) ;
#46 = COORDINATED_UNIVERSAL_TIME_OFFSET ( 1, 0, .AHEAD. ) ;
#47 = CC_DESIGN_APPROVAL ( #67, ( #188 ) ) ;
#48 = APPROVAL_DATE_TIME ( #8, #105 ) ;
#49 = EDGE_CURVE ( 'NONE', #176, #176, #13, .T. ) ;
#50 = CARTESIAN_POINT ( 'NONE',  ( 1.745740669421566678E-13, -6.123233995736766085E-15, 50.00000000000000000 ) ) ;
#51 = PRODUCT_RELATED_PRODUCT_CATEGORY ( 'detail', '', ( #74 ) ) ;
#52 = LOCAL_TIME ( 9, 31, 32.00000000000000000, #201 ) ;
#53 = AXIS2_PLACEMENT_3D ( 'NONE', #117, #17, #2 ) ;
#54 = EDGE_LOOP ( 'NONE', ( #21 ) ) ;
#55 = DIRECTION ( 'NONE',  ( 0.0000000000000000000, 1.000000000000000000, 0.0000000000000000000 ) ) ;
#56 = CARTESIAN_POINT ( 'NONE',  ( 0.0000000000000000000, 0.0000000000000000000, 0.0000000000000000000 ) ) ;
#57 = ADVANCED_FACE ( 'NONE', ( #124 ), #108, .F. ) ;
#58 = PLANE ( 'NONE',  #197 ) ;
#59 = FACE_OUTER_BOUND ( 'NONE', #19, .T. ) ;
#60 = LOCAL_TIME ( 9, 31, 32.00000000000000000, #61 ) ;
#61 = COORDINATED_UNIVERSAL_TIME_OFFSET ( 1, 0, .AHEAD. ) ;
#62 = CIRCLE ( 'NONE', #23, 2.250000000000001332 ) ;
#63 = APPLICATION_PROTOCOL_DEFINITION ( 'international standard', 'config_control_design', 1994, #136 ) ;
#64 = PERSON_AND_ORGANIZATION_ROLE ( 'classification_officer' ) ;
#65 =( NAMED_UNIT ( * ) SI_UNIT ( $, .STERADIAN. ) SOLID_ANGLE_UNIT ( ) );
#66 = PERSON_AND_ORGANIZATION ( #42, #9 ) ;
#67 = APPROVAL ( #112, 'UNSPECIFIED' ) ;
#68 = DIRECTION ( 'NONE',  ( -3.491481338843133355E-15, 1.224646799147353207E-16, -1.000000000000000000 ) ) ;
#69 = FACE_OUTER_BOUND ( 'NONE', #106, .T. ) ;
#70 = APPROVAL ( #25, 'UNSPECIFIED' ) ;
#71 = DIRECTION ( 'NONE',  ( 0.0000000000000000000, 1.000000000000000000, 0.0000000000000000000 ) ) ;
#72 = DIRECTION ( 'NONE',  ( 0.0000000000000000000, 1.000000000000000000, 0.0000000000000000000 ) ) ;
#73 = VERTEX_POINT ( 'NONE', #128 ) ;
#74 = PRODUCT ( '41135', '41135', '', ( #145 ) ) ;
#75 = VERTEX_POINT ( 'NONE', #79 ) ;
#76 = ADVANCED_FACE ( 'NONE', ( #69 ), #170, .F. ) ;
#77 =( LENGTH_UNIT ( ) NAMED_UNIT ( * ) SI_UNIT ( .MILLI., .METRE. ) );
#78 = APPROVAL_PERSON_ORGANIZATION ( #202, #105, #186 ) ;
#79 = CARTESIAN_POINT ( 'NONE',  ( 1.745740669421566678E-13, 1.849999999999994982, 50.00000000000000000 ) ) ;
#80 = CARTESIAN_POINT ( 'NONE',  ( 4.189777606611760026E-14, 1.687229755494585430E-32, 12.00000000000000000 ) ) ;
#81 = CARTESIAN_POINT ( 'NONE',  ( 1.745740669421566678E-13, 1.387277798962210077E-32, 50.00000000000000000 ) ) ;
#82 = CC_DESIGN_APPROVAL ( #70, ( #163 ) ) ;
#83 = EDGE_LOOP ( 'NONE', ( #156 ) ) ;
#84 = ADVANCED_FACE ( 'NONE', ( #134, #1 ), #30, .T. ) ;
#85 = DIRECTION ( 'NONE',  ( -3.491481338843133355E-15, 1.224646799147353207E-16, -1.000000000000000000 ) ) ;
#86 = DIRECTION ( 'NONE',  ( -3.491481338843133355E-15, 1.224646799147353207E-16, -1.000000000000000000 ) ) ;
#87 = ORIENTED_EDGE ( 'NONE', *, *, #49, .F. ) ;
#88 = AXIS2_PLACEMENT_3D ( 'NONE', #81, #152, #3 ) ;
#89 = DIRECTION ( 'NONE',  ( 4.275831445896958607E-31, 1.000000000000000000, 1.224646799147352961E-16 ) ) ;
#90 = DIRECTION ( 'NONE',  ( 0.0000000000000000000, 0.0000000000000000000, 1.000000000000000000 ) ) ;
#91 = ADVANCED_FACE ( 'NONE', ( #15 ), #150, .T. ) ;
#92 = PERSON_AND_ORGANIZATION_ROLE ( 'creator' ) ;
#93 = DIRECTION ( 'NONE',  ( 0.0000000000000000000, 1.000000000000000000, 0.0000000000000000000 ) ) ;
#94 = AXIS2_PLACEMENT_3D ( 'NONE', #149, #4, #137 ) ;
#95 = ORIENTED_EDGE ( 'NONE', *, *, #14, .F. ) ;
#96 = ORIENTED_EDGE ( 'NONE', *, *, #116, .F. ) ;
#97 = ORIENTED_EDGE ( 'NONE', *, *, #99, .F. ) ;
#98 = CYLINDRICAL_SURFACE ( 'NONE', #169, 2.249999999999998668 ) ;
#99 = EDGE_CURVE ( 'NONE', #73, #73, #200, .T. ) ;
#100 = DATE_TIME_ROLE ( 'classification_date' ) ;
#101 = APPROVAL_PERSON_ORGANIZATION ( #39, #70, #127 ) ;
#102 = PERSON_AND_ORGANIZATION_ROLE ( 'creator' ) ;
#103 = CALENDAR_DATE ( 2021, 9, 11 ) ;
#104 = CARTESIAN_POINT ( 'NONE',  ( 1.745740669421566678E-13, -6.123233995736766085E-15, 50.00000000000000000 ) ) ;
#105 = APPROVAL ( #144, 'UNSPECIFIED' ) ;
#106 = EDGE_LOOP ( 'NONE', ( #96 ) ) ;
#107 = DIRECTION ( 'NONE',  ( -3.491481338843133355E-15, 1.224646799147353207E-16, -1.000000000000000000 ) ) ;
#108 = PLANE ( 'NONE',  #94 ) ;
#109 = ORIENTED_EDGE ( 'NONE', *, *, #116, .T. ) ;
#110 = DIRECTION ( 'NONE',  ( 3.491481338843133355E-15, -1.224646799147353207E-16, 1.000000000000000000 ) ) ;
#111 = DATE_AND_TIME ( #177, #52 ) ;
#112 = APPROVAL_STATUS ( 'not_yet_approved' ) ;
#113 = CALENDAR_DATE ( 2021, 9, 11 ) ;
#114 = PERSON_AND_ORGANIZATION ( #42, #9 ) ;
#115 = DATE_AND_TIME ( #103, #37 ) ;
#116 = EDGE_CURVE ( 'NONE', #75, #75, #40, .T. ) ;
#117 = CARTESIAN_POINT ( 'NONE',  ( 4.189777606611760026E-14, -1.469576158976823947E-15, 12.00000000000000000 ) ) ;
#118 = CC_DESIGN_DATE_AND_TIME_ASSIGNMENT ( #115, #100, ( #188 ) ) ;
#119 = CC_DESIGN_APPROVAL ( #105, ( #171 ) ) ;
#120 = ORIENTED_EDGE ( 'NONE', *, *, #99, .T. ) ;
#121 = EDGE_LOOP ( 'NONE', ( #97 ) ) ;
#122 = AXIS2_PLACEMENT_3D ( 'NONE', #56, #68, #89 ) ;
#123 = FACE_OUTER_BOUND ( 'NONE', #194, .T. ) ;
#124 = FACE_OUTER_BOUND ( 'NONE', #83, .T. ) ;
#125 = LOCAL_TIME ( 9, 31, 32.00000000000000000, #46 ) ;
#126 = ADVANCED_BREP_SHAPE_REPRESENTATION ( '41135', ( #181, #185, #175 ), #27 ) ;
#127 = APPROVAL_ROLE ( '' ) ;
#128 = CARTESIAN_POINT ( 'NONE',  ( 4.189777606611760026E-14, 2.249999999999995115, 12.00000000000000000 ) ) ;
#129 = AXIS2_PLACEMENT_3D ( 'NONE', #80, #133, #189 ) ;
#130 = CALENDAR_DATE ( 2021, 9, 11 ) ;
#131 = CARTESIAN_POINT ( 'NONE',  ( 0.0000000000000000000, 0.0000000000000000000, 0.0000000000000000000 ) ) ;
#132 = CC_DESIGN_DATE_AND_TIME_ASSIGNMENT ( #111, #160, ( #171 ) ) ;
#133 = DIRECTION ( 'NONE',  ( 3.491481338843133355E-15, -1.224646799147353207E-16, 1.000000000000000000 ) ) ;
#134 = FACE_OUTER_BOUND ( 'NONE', #190, .T. ) ;
#135 = AXIS2_PLACEMENT_3D ( 'NONE', #172, #86, #195 ) ;
#136 = APPLICATION_CONTEXT ( 'configuration controlled 3d designs of mechanical parts and assemblies' ) ;
#137 = DIRECTION ( 'NONE',  ( -4.275831445896958607E-31, -1.000000000000000000, -1.224646799147353207E-16 ) ) ;
#138 = DIRECTION ( 'NONE',  ( -3.491481338843133355E-15, 1.224646799147353207E-16, -1.000000000000000000 ) ) ;
#139 = EDGE_CURVE ( 'NONE', #28, #28, #43, .T. ) ;
#140 = AXIS2_PLACEMENT_3D ( 'NONE', #50, #168, #93 ) ;
#141 = DIRECTION ( 'NONE',  ( -4.275831445896958607E-31, -1.000000000000000000, -1.224646799147353207E-16 ) ) ;
#142 = APPLICATION_PROTOCOL_DEFINITION ( 'international standard', 'config_control_design', 1994, #159 ) ;
#143 = CARTESIAN_POINT ( 'NONE',  ( 2.137876538271898504E-31, 2.249999999999995115, 6.123121766362532060E-17 ) ) ;
#144 = APPROVAL_STATUS ( 'not_yet_approved' ) ;
#145 = MECHANICAL_CONTEXT ( 'NONE', #159, 'mechanical' ) ;
#146 = DIRECTION ( 'NONE',  ( -3.491481338843133355E-15, 1.224646799147353207E-16, -1.000000000000000000 ) ) ;
#147 = CC_DESIGN_PERSON_AND_ORGANIZATION_ASSIGNMENT ( #66, #64, ( #188 ) ) ;
#148 = CLOSED_SHELL ( 'NONE', ( #57, #24, #91 ) ) ;
#149 = CARTESIAN_POINT ( 'NONE',  ( -3.741372107498118671E-31, 1.312296681896317848E-32, -1.071571560722642704E-16 ) ) ;
#150 = PLANE ( 'NONE',  #129 ) ;
#151 = CC_DESIGN_SECURITY_CLASSIFICATION ( #188, ( #163 ) ) ;
#152 = DIRECTION ( 'NONE',  ( -3.491481338843133355E-15, 1.224646799147353207E-16, -1.000000000000000000 ) ) ;
#153 = CARTESIAN_POINT ( 'NONE',  ( 4.189777606611760026E-14, 1.687229755494585430E-32, 12.00000000000000000 ) ) ;
#154 = CC_DESIGN_PERSON_AND_ORGANIZATION_ASSIGNMENT ( #182, #44, ( #163 ) ) ;
#155 = CARTESIAN_POINT ( 'NONE',  ( 4.189777606611760026E-14, -1.469576158976823947E-15, 12.00000000000000000 ) ) ;
#156 = ORIENTED_EDGE ( 'NONE', *, *, #139, .T. ) ;
#157 = APPROVAL_PERSON_ORGANIZATION ( #203, #67, #187 ) ;
#158 = CLOSED_SHELL ( 'NONE', ( #178, #29, #84, #76 ) ) ;
#159 = APPLICATION_CONTEXT ( 'configuration controlled 3d designs of mechanical parts and assemblies' ) ;
#160 = DATE_TIME_ROLE ( 'creation_date' ) ;
#161 = APPROVAL_DATE_TIME ( #41, #70 ) ;
#162 = APPROVAL_DATE_TIME ( #165, #67 ) ;
#163 = PRODUCT_DEFINITION_FORMATION_WITH_SPECIFIED_SOURCE ( 'ANY', '', #74, .NOT_KNOWN. ) ;
#164 = PERSON_AND_ORGANIZATION_ROLE ( 'design_owner' ) ;
#165 = DATE_AND_TIME ( #130, #125 ) ;
#166 = DESIGN_CONTEXT ( 'detailed design', #136, 'design' ) ;
#167 = SECURITY_CLASSIFICATION_LEVEL ( 'unclassified' ) ;
#168 = DIRECTION ( 'NONE',  ( -3.491481338843133355E-15, 1.224646799147353207E-16, -1.000000000000000000 ) ) ;
#169 = AXIS2_PLACEMENT_3D ( 'NONE', #16, #107, #32 ) ;
#170 = PLANE ( 'NONE',  #88 ) ;
#171 = PRODUCT_DEFINITION ( 'UNKNOWN', '', #163, #166 ) ;
#172 = CARTESIAN_POINT ( 'NONE',  ( -7.482744214996237341E-31, 2.624593363792635695E-32, -2.143143121445285409E-16 ) ) ;
#173 = VERTEX_POINT ( 'NONE', #36 ) ;
#174 = CYLINDRICAL_SURFACE ( 'NONE', #122, 2.249999999999996003 ) ;
#175 = AXIS2_PLACEMENT_3D ( 'NONE', #131, #90, #10 ) ;
#176 = VERTEX_POINT ( 'NONE', #38 ) ;
#177 = CALENDAR_DATE ( 2021, 9, 11 ) ;
#178 = ADVANCED_FACE ( 'NONE', ( #34 ), #58, .F. ) ;
#179 = AXIS2_PLACEMENT_3D ( 'NONE', #155, #138, #55 ) ;
#180 = CALENDAR_DATE ( 2021, 9, 11 ) ;
#181 = MANIFOLD_SOLID_BREP ( 'Corps-Déplacer/Copier1[1]', #158 ) ;
#182 = PERSON_AND_ORGANIZATION ( #42, #9 ) ;
#183 = PERSON_AND_ORGANIZATION ( #42, #9 ) ;
#184 = SHAPE_DEFINITION_REPRESENTATION ( #196, #126 ) ;
#185 = MANIFOLD_SOLID_BREP ( 'Corps-Déplacer/Copier1[2]', #148 ) ;
#186 = APPROVAL_ROLE ( '' ) ;
#187 = APPROVAL_ROLE ( '' ) ;
#188 = SECURITY_CLASSIFICATION ( '', '', #167 ) ;
#189 = DIRECTION ( 'NONE',  ( -4.275831445896958607E-31, -1.000000000000000000, -1.224646799147353207E-16 ) ) ;
#190 = EDGE_LOOP ( 'NONE', ( #95 ) ) ;
#191 = ORIENTED_EDGE ( 'NONE', *, *, #139, .F. ) ;
#192 = CC_DESIGN_PERSON_AND_ORGANIZATION_ASSIGNMENT ( #183, #102, ( #171 ) ) ;
#193 = FACE_OUTER_BOUND ( 'NONE', #22, .T. ) ;
#194 = EDGE_LOOP ( 'NONE', ( #191 ) ) ;
#195 = DIRECTION ( 'NONE',  ( 4.275831445896958607E-31, 1.000000000000000000, 1.224646799147353207E-16 ) ) ;
#196 = PRODUCT_DEFINITION_SHAPE ( 'NONE', 'NONE',  #171 ) ;
#197 = AXIS2_PLACEMENT_3D ( 'NONE', #153, #110, #141 ) ;
#198 = CC_DESIGN_PERSON_AND_ORGANIZATION_ASSIGNMENT ( #26, #92, ( #163 ) ) ;
#199 =( NAMED_UNIT ( * ) PLANE_ANGLE_UNIT ( ) SI_UNIT ( $, .RADIAN. ) );
#200 = CIRCLE ( 'NONE', #53, 2.249999999999996447 ) ;
#201 = COORDINATED_UNIVERSAL_TIME_OFFSET ( 1, 0, .AHEAD. ) ;
#202 = PERSON_AND_ORGANIZATION ( #42, #9 ) ;
#203 = PERSON_AND_ORGANIZATION ( #42, #9 ) ;
ENDSEC;
END-ISO-10303-21;
