ISO-10303-21;
HEADER;
FILE_DESCRIPTION (( 'STEP AP203' ),
    '1' );
FILE_NAME ('41120.step',
    '2021-10-15T13:34:46',
    ( '' ),
    ( '' ),
    'SwSTEP 2.0',
    'SolidWorks 2019',
    '' );
FILE_SCHEMA (( 'CONFIG_CONTROL_DESIGN' ));
ENDSEC;

DATA;
#1 = PERSON_AND_ORGANIZATION ( #153, #137 ) ;
#2 = LOCAL_TIME ( 15, 34, 46.00000000000000000, #129 ) ;
#3 = PERSON_AND_ORGANIZATION ( #153, #137 ) ;
#4 = VERTEX_POINT ( 'NONE', #160 ) ;
#5 = DIRECTION ( 'NONE',  ( 0.0000000000000000000, 0.0000000000000000000, 1.000000000000000000 ) ) ;
#6 =( LENGTH_UNIT ( ) NAMED_UNIT ( * ) SI_UNIT ( .MILLI., .METRE. ) );
#7 = CARTESIAN_POINT ( 'NONE',  ( 0.0000000000000000000, 0.0000000000000000000, 0.0000000000000000000 ) ) ;
#8 = FACE_OUTER_BOUND ( 'NONE', #79, .T. ) ;
#9 = LOCAL_TIME ( 15, 34, 46.00000000000000000, #112 ) ;
#10 = APPROVAL_DATE_TIME ( #26, #135 ) ;
#11 = CC_DESIGN_PERSON_AND_ORGANIZATION_ASSIGNMENT ( #3, #73, ( #77 ) ) ;
#12 = EDGE_LOOP ( 'NONE', ( #48 ) ) ;
#13 = PRODUCT_RELATED_PRODUCT_CATEGORY ( 'detail', '', ( #14 ) ) ;
#14 = PRODUCT ( '41120', '41120', '', ( #86 ) ) ;
#15 = AXIS2_PLACEMENT_3D ( 'NONE', #124, #139, #42 ) ;
#16 =( GEOMETRIC_REPRESENTATION_CONTEXT ( 3 ) GLOBAL_UNCERTAINTY_ASSIGNED_CONTEXT ( ( #128 ) ) GLOBAL_UNIT_ASSIGNED_CONTEXT ( ( #6, #75, #113 ) ) REPRESENTATION_CONTEXT ( 'NONE', 'WORKASPACE' ) );
#17 = AXIS2_PLACEMENT_3D ( 'NONE', #45, #65, #125 ) ;
#18 = DIRECTION ( 'NONE',  ( 4.275831445896959482E-31, 1.000000000000000000, 1.224646799147353207E-16 ) ) ;
#19 = CC_DESIGN_PERSON_AND_ORGANIZATION_ASSIGNMENT ( #55, #91, ( #202 ) ) ;
#20 = DATE_AND_TIME ( #103, #120 ) ;
#21 = DIRECTION ( 'NONE',  ( -3.491481338843133355E-15, 1.224646799147353207E-16, -1.000000000000000000 ) ) ;
#22 = DATE_AND_TIME ( #147, #172 ) ;
#23 = CARTESIAN_POINT ( 'NONE',  ( 0.0000000000000000000, 0.0000000000000000000, 0.0000000000000000000 ) ) ;
#24 = APPLICATION_PROTOCOL_DEFINITION ( 'international standard', 'config_control_design', 1994, #101 ) ;
#25 = DIRECTION ( 'NONE',  ( -3.491481338843133355E-15, 1.224646799147353207E-16, -1.000000000000000000 ) ) ;
#26 = DATE_AND_TIME ( #59, #36 ) ;
#27 = PRODUCT_DEFINITION ( 'UNKNOWN', '', #77, #96 ) ;
#28 = ORIENTED_EDGE ( 'NONE', *, *, #76, .F. ) ;
#29 = CC_DESIGN_PERSON_AND_ORGANIZATION_ASSIGNMENT ( #1, #191, ( #77 ) ) ;
#30 = EDGE_LOOP ( 'NONE', ( #64 ) ) ;
#31 = EDGE_CURVE ( 'NONE', #4, #4, #162, .T. ) ;
#32 = AXIS2_PLACEMENT_3D ( 'NONE', #51, #152, #104 ) ;
#33 = CIRCLE ( 'NONE', #94, 2.999999999999998224 ) ;
#34 = CC_DESIGN_PERSON_AND_ORGANIZATION_ASSIGNMENT ( #142, #98, ( #14 ) ) ;
#35 = FACE_OUTER_BOUND ( 'NONE', #178, .T. ) ;
#36 = LOCAL_TIME ( 15, 34, 46.00000000000000000, #41 ) ;
#37 = VERTEX_POINT ( 'NONE', #102 ) ;
#38 = APPLICATION_PROTOCOL_DEFINITION ( 'international standard', 'config_control_design', 1994, #179 ) ;
#39 = CARTESIAN_POINT ( 'NONE',  ( 9.776147748760773395E-14, 2.999999999999994671, 28.00000000000000000 ) ) ;
#40 = EDGE_CURVE ( 'NONE', #184, #184, #33, .T. ) ;
#41 = COORDINATED_UNIVERSAL_TIME_OFFSET ( 1, 0, .AHEAD. ) ;
#42 = DIRECTION ( 'NONE',  ( 4.275831445896958607E-31, 1.000000000000000000, 1.224646799147353207E-16 ) ) ;
#43 = APPROVAL_ROLE ( '' ) ;
#44 = DIRECTION ( 'NONE',  ( -3.491481338843133355E-15, 1.224646799147353207E-16, -1.000000000000000000 ) ) ;
#45 = CARTESIAN_POINT ( 'NONE',  ( 3.812385842504470444E-15, -1.337204947137066409E-16, 1.091910702798619681 ) ) ;
#46 = APPROVAL_ROLE ( '' ) ;
#47 = EDGE_LOOP ( 'NONE', ( #92 ) ) ;
#48 = ORIENTED_EDGE ( 'NONE', *, *, #115, .T. ) ;
#49 = EDGE_LOOP ( 'NONE', ( #28 ) ) ;
#50 = ADVANCED_FACE ( 'NONE', ( #118 ), #148, .T. ) ;
#51 = CARTESIAN_POINT ( 'NONE',  ( 2.304377683636468267E-13, -8.082668874372532400E-15, 66.00000000000000000 ) ) ;
#52 = CIRCLE ( 'NONE', #17, 2.999999999999994671 ) ;
#53 = AXIS2_PLACEMENT_3D ( 'NONE', #130, #144, #100 ) ;
#54 = VERTEX_POINT ( 'NONE', #192 ) ;
#55 = PERSON_AND_ORGANIZATION ( #153, #137 ) ;
#56 = FACE_OUTER_BOUND ( 'NONE', #49, .T. ) ;
#57 = PERSON_AND_ORGANIZATION_ROLE ( 'creator' ) ;
#58 = FACE_BOUND ( 'NONE', #47, .T. ) ;
#59 = CALENDAR_DATE ( 2021, 15, 10 ) ;
#60 = FACE_OUTER_BOUND ( 'NONE', #81, .T. ) ;
#61 = COORDINATED_UNIVERSAL_TIME_OFFSET ( 1, 0, .AHEAD. ) ;
#62 = CARTESIAN_POINT ( 'NONE',  ( 9.776147748760773395E-14, -3.429011037612589276E-15, 28.00000000000000000 ) ) ;
#63 = AXIS2_PLACEMENT_3D ( 'NONE', #23, #44, #18 ) ;
#64 = ORIENTED_EDGE ( 'NONE', *, *, #31, .F. ) ;
#65 = DIRECTION ( 'NONE',  ( -3.491481338843133355E-15, 1.224646799147353207E-16, -1.000000000000000000 ) ) ;
#66 = ADVANCED_BREP_SHAPE_REPRESENTATION ( '41120', ( #199, #200, #126 ), #16 ) ;
#67 = APPROVAL ( #71, 'UNSPECIFIED' ) ;
#68 = CONICAL_SURFACE ( 'NONE', #53, 2.300000000000002931, 0.7853981633974437271 ) ;
#69 = DIRECTION ( 'NONE',  ( 0.0000000000000000000, 1.000000000000000000, 0.0000000000000000000 ) ) ;
#70 = APPROVAL_PERSON_ORGANIZATION ( #159, #67, #43 ) ;
#71 = APPROVAL_STATUS ( 'not_yet_approved' ) ;
#72 = FACE_OUTER_BOUND ( 'NONE', #12, .T. ) ;
#73 = PERSON_AND_ORGANIZATION_ROLE ( 'design_supplier' ) ;
#74 = CARTESIAN_POINT ( 'NONE',  ( 9.776147748760773395E-14, 2.249639673992780117E-32, 28.00000000000000000 ) ) ;
#75 =( NAMED_UNIT ( * ) PLANE_ANGLE_UNIT ( ) SI_UNIT ( $, .RADIAN. ) );
#76 = EDGE_CURVE ( 'NONE', #54, #54, #52, .T. ) ;
#77 = PRODUCT_DEFINITION_FORMATION_WITH_SPECIFIED_SOURCE ( 'ANY', '', #14, .NOT_KNOWN. ) ;
#78 = PERSON_AND_ORGANIZATION ( #153, #137 ) ;
#79 = EDGE_LOOP ( 'NONE', ( #132 ) ) ;
#80 = ORIENTED_EDGE ( 'NONE', *, *, #115, .F. ) ;
#81 = EDGE_LOOP ( 'NONE', ( #150 ) ) ;
#82 = CIRCLE ( 'NONE', #181, 3.000000000000002665 ) ;
#83 = APPROVAL_PERSON_ORGANIZATION ( #78, #135, #161 ) ;
#84 = FACE_OUTER_BOUND ( 'NONE', #30, .T. ) ;
#85 = PLANE ( 'NONE',  #110 ) ;
#86 = MECHANICAL_CONTEXT ( 'NONE', #179, 'mechanical' ) ;
#87 = CARTESIAN_POINT ( 'NONE',  ( 9.776147748760773395E-14, -3.429011037612589276E-15, 28.00000000000000000 ) ) ;
#88 = DATE_AND_TIME ( #189, #9 ) ;
#89 = CARTESIAN_POINT ( 'NONE',  ( 9.776147748760773395E-14, 2.249639673992780117E-32, 28.00000000000000000 ) ) ;
#90 = APPROVAL_STATUS ( 'not_yet_approved' ) ;
#91 = PERSON_AND_ORGANIZATION_ROLE ( 'classification_officer' ) ;
#92 = ORIENTED_EDGE ( 'NONE', *, *, #31, .T. ) ;
#93 = AXIS2_PLACEMENT_3D ( 'NONE', #157, #25, #203 ) ;
#94 = AXIS2_PLACEMENT_3D ( 'NONE', #62, #182, #149 ) ;
#95 = FACE_OUTER_BOUND ( 'NONE', #133, .T. ) ;
#96 = DESIGN_CONTEXT ( 'detailed design', #101, 'design' ) ;
#97 = CC_DESIGN_PERSON_AND_ORGANIZATION_ASSIGNMENT ( #163, #57, ( #27 ) ) ;
#98 = PERSON_AND_ORGANIZATION_ROLE ( 'design_owner' ) ;
#99 = APPROVAL_STATUS ( 'not_yet_approved' ) ;
#100 = DIRECTION ( 'NONE',  ( 0.0000000000000000000, 1.000000000000000000, 0.0000000000000000000 ) ) ;
#101 = APPLICATION_CONTEXT ( 'configuration controlled 3d designs of mechanical parts and assemblies' ) ;
#102 = CARTESIAN_POINT ( 'NONE',  ( 2.279937314264566018E-13, 2.999999999999994671, 65.29999999999999716 ) ) ;
#103 = CALENDAR_DATE ( 2021, 15, 10 ) ;
#104 = DIRECTION ( 'NONE',  ( 0.0000000000000000000, 1.000000000000000000, 0.0000000000000000000 ) ) ;
#105 = ADVANCED_FACE ( 'NONE', ( #56, #8 ), #111, .T. ) ;
#106 = ORIENTED_EDGE ( 'NONE', *, *, #76, .T. ) ;
#107 = AXIS2_PLACEMENT_3D ( 'NONE', #134, #176, #121 ) ;
#108 = ADVANCED_FACE ( 'NONE', ( #84 ), #169, .F. ) ;
#109 = CARTESIAN_POINT ( 'NONE',  ( 2.279937314264566018E-13, -7.996943598432214956E-15, 65.29999999999999716 ) ) ;
#110 = AXIS2_PLACEMENT_3D ( 'NONE', #89, #188, #117 ) ;
#111 = CYLINDRICAL_SURFACE ( 'NONE', #93, 2.999999999999996447 ) ;
#112 = COORDINATED_UNIVERSAL_TIME_OFFSET ( 1, 0, .AHEAD. ) ;
#113 =( NAMED_UNIT ( * ) SI_UNIT ( $, .STERADIAN. ) SOLID_ANGLE_UNIT ( ) );
#114 = DIRECTION ( 'NONE',  ( -3.491481338843133355E-15, 1.224646799147353207E-16, -1.000000000000000000 ) ) ;
#115 = EDGE_CURVE ( 'NONE', #171, #171, #143, .T. ) ;
#116 = CLOSED_SHELL ( 'NONE', ( #201, #183, #180, #108 ) ) ;
#117 = DIRECTION ( 'NONE',  ( -4.275831445896958607E-31, -1.000000000000000000, -1.224646799147353207E-16 ) ) ;
#118 = FACE_OUTER_BOUND ( 'NONE', #165, .T. ) ;
#119 = APPROVAL ( #99, 'UNSPECIFIED' ) ;
#120 = LOCAL_TIME ( 15, 34, 46.00000000000000000, #61 ) ;
#121 = DIRECTION ( 'NONE',  ( -5.135813185032638283E-31, -1.000000000000000000, -1.445602896647341875E-16 ) ) ;
#122 = EDGE_LOOP ( 'NONE', ( #195 ) ) ;
#123 = EDGE_CURVE ( 'NONE', #37, #37, #82, .T. ) ;
#124 = CARTESIAN_POINT ( 'NONE',  ( 2.304377683636468267E-13, 1.724723750061126122E-32, 66.00000000000000000 ) ) ;
#125 = DIRECTION ( 'NONE',  ( 5.135813185032638283E-31, 1.000000000000000000, 1.445602896647341875E-16 ) ) ;
#126 = AXIS2_PLACEMENT_3D ( 'NONE', #7, #5, #173 ) ;
#127 = PLANE ( 'NONE',  #185 ) ;
#128 = UNCERTAINTY_MEASURE_WITH_UNIT (LENGTH_MEASURE( 1.000000000000000082E-05 ), #6, 'distance_accuracy_value', 'NONE');
#129 = COORDINATED_UNIVERSAL_TIME_OFFSET ( 1, 0, .AHEAD. ) ;
#130 = CARTESIAN_POINT ( 'NONE',  ( 2.304377683636468267E-13, -8.082668874372532400E-15, 66.00000000000000000 ) ) ;
#131 = CALENDAR_DATE ( 2021, 15, 10 ) ;
#132 = ORIENTED_EDGE ( 'NONE', *, *, #40, .T. ) ;
#133 = EDGE_LOOP ( 'NONE', ( #80 ) ) ;
#134 = CARTESIAN_POINT ( 'NONE',  ( 3.812385842504470444E-15, -1.337204947137066409E-16, 1.091910702798619681 ) ) ;
#135 = APPROVAL ( #90, 'UNSPECIFIED' ) ;
#136 = PRODUCT_DEFINITION_SHAPE ( 'NONE', 'NONE',  #27 ) ;
#137 = ORGANIZATION ( 'UNSPECIFIED', 'UNSPECIFIED', '' ) ;
#138 = ADVANCED_FACE ( 'NONE', ( #166 ), #85, .T. ) ;
#139 = DIRECTION ( 'NONE',  ( -3.491481338843133355E-15, 1.224646799147353207E-16, -1.000000000000000000 ) ) ;
#140 = DATE_AND_TIME ( #131, #2 ) ;
#141 = DIRECTION ( 'NONE',  ( -4.275831445896958607E-31, -1.000000000000000000, -1.224646799147353207E-16 ) ) ;
#142 = PERSON_AND_ORGANIZATION ( #153, #137 ) ;
#143 = CIRCLE ( 'NONE', #186, 2.999999999999998224 ) ;
#144 = DIRECTION ( 'NONE',  ( -3.491481338843133355E-15, 1.224646799147353207E-16, -1.000000000000000000 ) ) ;
#145 = CARTESIAN_POINT ( 'NONE',  ( 9.776147748760773395E-14, 2.999999999999994671, 28.00000000000000000 ) ) ;
#146 = SHAPE_DEFINITION_REPRESENTATION ( #136, #66 ) ;
#147 = CALENDAR_DATE ( 2021, 15, 10 ) ;
#148 = CONICAL_SURFACE ( 'NONE', #107, 2.999999999999994671, 1.221730476396026388 ) ;
#149 = DIRECTION ( 'NONE',  ( 0.0000000000000000000, 1.000000000000000000, 0.0000000000000000000 ) ) ;
#150 = ORIENTED_EDGE ( 'NONE', *, *, #123, .T. ) ;
#151 = CLOSED_SHELL ( 'NONE', ( #50, #105, #138 ) ) ;
#152 = DIRECTION ( 'NONE',  ( -3.491481338843133355E-15, 1.224646799147353207E-16, -1.000000000000000000 ) ) ;
#153 = PERSON ( 'UNSPECIFIED', 'UNSPECIFIED', 'UNSPECIFIED', ('UNSPECIFIED'), ('UNSPECIFIED'), ('UNSPECIFIED') ) ;
#154 = CC_DESIGN_APPROVAL ( #119, ( #27 ) ) ;
#155 = CC_DESIGN_SECURITY_CLASSIFICATION ( #202, ( #77 ) ) ;
#156 = APPROVAL_PERSON_ORGANIZATION ( #177, #119, #46 ) ;
#157 = CARTESIAN_POINT ( 'NONE',  ( 0.0000000000000000000, 0.0000000000000000000, 0.0000000000000000000 ) ) ;
#158 = APPROVAL_DATE_TIME ( #140, #119 ) ;
#159 = PERSON_AND_ORGANIZATION ( #153, #137 ) ;
#160 = CARTESIAN_POINT ( 'NONE',  ( 2.304377683636468267E-13, 2.299999999999994937, 66.00000000000000000 ) ) ;
#161 = APPROVAL_ROLE ( '' ) ;
#162 = CIRCLE ( 'NONE', #32, 2.300000000000002931 ) ;
#163 = PERSON_AND_ORGANIZATION ( #153, #137 ) ;
#164 = ORIENTED_EDGE ( 'NONE', *, *, #123, .F. ) ;
#165 = EDGE_LOOP ( 'NONE', ( #106 ) ) ;
#166 = FACE_OUTER_BOUND ( 'NONE', #122, .T. ) ;
#167 = DIRECTION ( 'NONE',  ( 0.0000000000000000000, 1.000000000000000000, 0.0000000000000000000 ) ) ;
#168 = COORDINATED_UNIVERSAL_TIME_OFFSET ( 1, 0, .AHEAD. ) ;
#169 = PLANE ( 'NONE',  #15 ) ;
#170 = DATE_TIME_ROLE ( 'classification_date' ) ;
#171 = VERTEX_POINT ( 'NONE', #145 ) ;
#172 = LOCAL_TIME ( 15, 34, 46.00000000000000000, #168 ) ;
#173 = DIRECTION ( 'NONE',  ( 1.000000000000000000, 0.0000000000000000000, 0.0000000000000000000 ) ) ;
#174 = DIRECTION ( 'NONE',  ( 3.491481338843133355E-15, -1.224646799147353207E-16, 1.000000000000000000 ) ) ;
#175 = APPROVAL_DATE_TIME ( #22, #67 ) ;
#176 = DIRECTION ( 'NONE',  ( 3.491481338843133355E-15, -1.224646799147353207E-16, 1.000000000000000000 ) ) ;
#177 = PERSON_AND_ORGANIZATION ( #153, #137 ) ;
#178 = EDGE_LOOP ( 'NONE', ( #164 ) ) ;
#179 = APPLICATION_CONTEXT ( 'configuration controlled 3d designs of mechanical parts and assemblies' ) ;
#180 = ADVANCED_FACE ( 'NONE', ( #35, #58 ), #68, .T. ) ;
#181 = AXIS2_PLACEMENT_3D ( 'NONE', #109, #21, #167 ) ;
#182 = DIRECTION ( 'NONE',  ( -3.491481338843133355E-15, 1.224646799147353207E-16, -1.000000000000000000 ) ) ;
#183 = ADVANCED_FACE ( 'NONE', ( #95, #60 ), #190, .T. ) ;
#184 = VERTEX_POINT ( 'NONE', #39 ) ;
#185 = AXIS2_PLACEMENT_3D ( 'NONE', #74, #174, #141 ) ;
#186 = AXIS2_PLACEMENT_3D ( 'NONE', #87, #114, #69 ) ;
#187 = SECURITY_CLASSIFICATION_LEVEL ( 'unclassified' ) ;
#188 = DIRECTION ( 'NONE',  ( 3.491481338843133355E-15, -1.224646799147353207E-16, 1.000000000000000000 ) ) ;
#189 = CALENDAR_DATE ( 2021, 15, 10 ) ;
#190 = CYLINDRICAL_SURFACE ( 'NONE', #63, 3.000000000000000444 ) ;
#191 = PERSON_AND_ORGANIZATION_ROLE ( 'creator' ) ;
#192 = CARTESIAN_POINT ( 'NONE',  ( 3.812385842504472022E-15, 2.999999999999994671, 1.091910702798620125 ) ) ;
#193 = CC_DESIGN_APPROVAL ( #67, ( #77 ) ) ;
#194 = DATE_TIME_ROLE ( 'creation_date' ) ;
#195 = ORIENTED_EDGE ( 'NONE', *, *, #40, .F. ) ;
#196 = CC_DESIGN_DATE_AND_TIME_ASSIGNMENT ( #88, #170, ( #202 ) ) ;
#197 = CC_DESIGN_DATE_AND_TIME_ASSIGNMENT ( #20, #194, ( #27 ) ) ;
#198 = CC_DESIGN_APPROVAL ( #135, ( #202 ) ) ;
#199 = MANIFOLD_SOLID_BREP ( 'Corps-Déplacer/Copier1[1]', #116 ) ;
#200 = MANIFOLD_SOLID_BREP ( 'Corps-Déplacer/Copier1[2]', #151 ) ;
#201 = ADVANCED_FACE ( 'NONE', ( #72 ), #127, .F. ) ;
#202 = SECURITY_CLASSIFICATION ( '', '', #187 ) ;
#203 = DIRECTION ( 'NONE',  ( 4.275831445896958607E-31, 1.000000000000000000, 1.224646799147353207E-16 ) ) ;
ENDSEC;
END-ISO-10303-21;
