ISO-10303-21;
HEADER;
FILE_DESCRIPTION (( 'STEP AP203' ),
    '1' );
FILE_NAME ('41092.step',
    '2021-09-03T07:22:10',
    ( '' ),
    ( '' ),
    'SwSTEP 2.0',
    'SolidWorks 2019',
    '' );
FILE_SCHEMA (( 'CONFIG_CONTROL_DESIGN' ));
ENDSEC;

DATA;
#1 = CIRCLE ( 'NONE', #50, 5.749999999999997335 ) ;
#2 = CC_DESIGN_SECURITY_CLASSIFICATION ( #299, ( #283 ) ) ;
#3 = CARTESIAN_POINT ( 'NONE',  ( 3.316907271900976814E-13, -1.163414459189985801E-14, 95.00000000000000000 ) ) ;
#4 = ADVANCED_FACE ( 'NONE', ( #198 ), #71, .T. ) ;
#5 = FACE_OUTER_BOUND ( 'NONE', #120, .T. ) ;
#6 = CYLINDRICAL_SURFACE ( 'NONE', #253, 5.749999999999994671 ) ;
#7 = VECTOR ( 'NONE', #133, 1000.000000000000000 ) ;
#8 = CC_DESIGN_PERSON_AND_ORGANIZATION_ASSIGNMENT ( #304, #335, ( #299 ) ) ;
#9 = LINE ( 'NONE', #141, #163 ) ;
#10 = DIRECTION ( 'NONE',  ( 1.000000000000000000, 0.0000000000000000000, 0.0000000000000000000 ) ) ;
#11 = DIRECTION ( 'NONE',  ( -3.491481338843133355E-15, 1.224646799147353454E-16, -1.000000000000000000 ) ) ;
#12 = DATE_AND_TIME ( #184, #271 ) ;
#13 = ORIENTED_EDGE ( 'NONE', *, *, #318, .F. ) ;
#14 = AXIS2_PLACEMENT_3D ( 'NONE', #194, #35, #278 ) ;
#15 = LOCAL_TIME ( 9, 22, 10.00000000000000000, #20 ) ;
#16 = DIRECTION ( 'NONE',  ( -3.491481338843133355E-15, 1.224646799147353454E-16, -1.000000000000000000 ) ) ;
#17 = DIRECTION ( 'NONE',  ( -2.382254525458717469E-15, -0.7071067811865471286, -0.7071067811865479058 ) ) ;
#18 = DATE_AND_TIME ( #146, #129 ) ;
#19 = EDGE_CURVE ( 'NONE', #152, #265, #212, .T. ) ;
#20 = COORDINATED_UNIVERSAL_TIME_OFFSET ( 1, 0, .AHEAD. ) ;
#21 = ORIENTED_EDGE ( 'NONE', *, *, #89, .F. ) ;
#22 = APPROVAL_DATE_TIME ( #18, #324 ) ;
#23 = DIRECTION ( 'NONE',  ( 4.275831445896959482E-31, 1.000000000000000000, 1.224646799147353454E-16 ) ) ;
#24 = CIRCLE ( 'NONE', #57, 4.750000000000004441 ) ;
#25 = EDGE_CURVE ( 'NONE', #277, #125, #101, .T. ) ;
#26 = CARTESIAN_POINT ( 'NONE',  ( 3.316907271900976814E-13, 4.749999999999992895, 95.00000000000000000 ) ) ;
#27 = AXIS2_PLACEMENT_3D ( 'NONE', #53, #156, #29 ) ;
#28 = DIRECTION ( 'NONE',  ( -3.491481338843133355E-15, 1.224646799147353454E-16, -1.000000000000000000 ) ) ;
#29 = DIRECTION ( 'NONE',  ( -4.275831445896959482E-31, -1.000000000000000000, -1.224646799147353454E-16 ) ) ;
#30 = ADVANCED_FACE ( 'NONE', ( #311 ), #279, .T. ) ;
#31 = EDGE_LOOP ( 'NONE', ( #306, #173, #21, #13 ) ) ;
#32 = DIRECTION ( 'NONE',  ( 0.0000000000000000000, 1.000000000000000000, 0.0000000000000000000 ) ) ;
#33 = AXIS2_PLACEMENT_3D ( 'NONE', #165, #310, #234 ) ;
#34 = ORIENTED_EDGE ( 'NONE', *, *, #19, .F. ) ;
#35 = DIRECTION ( 'NONE',  ( -3.491481338843133355E-15, 1.224646799147353454E-16, -1.000000000000000000 ) ) ;
#36 = VERTEX_POINT ( 'NONE', #60 ) ;
#37 = APPROVAL_STATUS ( 'not_yet_approved' ) ;
#38 = DIRECTION ( 'NONE',  ( 0.0000000000000000000, 1.000000000000000000, 0.0000000000000000000 ) ) ;
#39 = PRODUCT ( '41092', '41092', '', ( #92 ) ) ;
#40 = CLOSED_SHELL ( 'NONE', ( #192, #332, #308, #47, #312, #297 ) ) ;
#41 = ORIENTED_EDGE ( 'NONE', *, *, #167, .T. ) ;
#42 = COORDINATED_UNIVERSAL_TIME_OFFSET ( 1, 0, .AHEAD. ) ;
#43 = CC_DESIGN_APPROVAL ( #155, ( #153 ) ) ;
#44 = FACE_OUTER_BOUND ( 'NONE', #213, .T. ) ;
#45 = ORIENTED_EDGE ( 'NONE', *, *, #318, .T. ) ;
#46 = DIRECTION ( 'NONE',  ( 0.0000000000000000000, 1.000000000000000000, 0.0000000000000000000 ) ) ;
#47 = ADVANCED_FACE ( 'NONE', ( #44 ), #115, .T. ) ;
#48 = VERTEX_POINT ( 'NONE', #218 ) ;
#49 = ORIENTED_EDGE ( 'NONE', *, *, #160, .F. ) ;
#50 = AXIS2_PLACEMENT_3D ( 'NONE', #94, #203, #126 ) ;
#51 = ORIENTED_EDGE ( 'NONE', *, *, #284, .T. ) ;
#52 = MANIFOLD_SOLID_BREP ( 'Corps-Déplacer/Copier1[1]', #40 ) ;
#53 = CARTESIAN_POINT ( 'NONE',  ( 1.152188841818234133E-13, 4.311809375152834328E-32, 33.00000000000000000 ) ) ;
#54 = DIRECTION ( 'NONE',  ( -5.359109410468836483E-31, -1.000000000000000000, -1.508455196501573155E-16 ) ) ;
#55 = LINE ( 'NONE', #128, #7 ) ;
#56 = CARTESIAN_POINT ( 'NONE',  ( 3.316907271900976814E-13, -1.163414459189985801E-14, 95.00000000000000000 ) ) ;
#57 = AXIS2_PLACEMENT_3D ( 'NONE', #122, #233, #261 ) ;
#58 = CONICAL_SURFACE ( 'NONE', #136, 4.750000000000004441, 0.7853981633974479459 ) ;
#59 = MANIFOLD_SOLID_BREP ( 'Corps-Déplacer/Copier1[2]', #178 ) ;
#60 = CARTESIAN_POINT ( 'NONE',  ( 1.206288842183775734E-14, -5.749999999999992895, 3.454948559408504316 ) ) ;
#61 = VECTOR ( 'NONE', #208, 999.9999999999998863 ) ;
#62 = FACE_OUTER_BOUND ( 'NONE', #281, .T. ) ;
#63 = CALENDAR_DATE ( 2021, 3, 9 ) ;
#64 = APPLICATION_PROTOCOL_DEFINITION ( 'international standard', 'config_control_design', 1994, #260 ) ;
#65 = DIRECTION ( 'NONE',  ( -3.491481338843133355E-15, 1.224646799147353454E-16, -1.000000000000000000 ) ) ;
#66 = AXIS2_PLACEMENT_3D ( 'NONE', #3, #28, #206 ) ;
#67 = ORIENTED_EDGE ( 'NONE', *, *, #292, .T. ) ;
#68 = CARTESIAN_POINT ( 'NONE',  ( 1.152188841818234133E-13, -4.041334437186266989E-15, 33.00000000000000000 ) ) ;
#69 = EDGE_CURVE ( 'NONE', #152, #262, #137, .T. ) ;
#70 = EDGE_LOOP ( 'NONE', ( #257, #108, #41, #223 ) ) ;
#71 = CYLINDRICAL_SURFACE ( 'NONE', #124, 5.749999999999994671 ) ;
#72 = ORIENTED_EDGE ( 'NONE', *, *, #25, .F. ) ;
#73 = DIRECTION ( 'NONE',  ( -3.491481338843133355E-15, 1.224646799147353454E-16, -1.000000000000000000 ) ) ;
#74 = PERSON ( 'UNSPECIFIED', 'UNSPECIFIED', 'UNSPECIFIED', ('UNSPECIFIED'), ('UNSPECIFIED'), ('UNSPECIFIED') ) ;
#75 = APPROVAL_PERSON_ORGANIZATION ( #191, #155, #193 ) ;
#76 = DIRECTION ( 'NONE',  ( -3.491481338843133355E-15, 1.224646799147353454E-16, -1.000000000000000000 ) ) ;
#77 = DIRECTION ( 'NONE',  ( -3.491481338843133355E-15, 1.224646799147353454E-16, -1.000000000000000000 ) ) ;
#78 = AXIS2_PLACEMENT_3D ( 'NONE', #82, #181, #54 ) ;
#79 = LOCAL_TIME ( 9, 22, 10.00000000000000000, #42 ) ;
#80 = FACE_OUTER_BOUND ( 'NONE', #169, .T. ) ;
#81 = CARTESIAN_POINT ( 'NONE',  ( 1.276706033134749075E-14, 5.749999999999992895, 3.454948559408505648 ) ) ;
#82 = CARTESIAN_POINT ( 'NONE',  ( 1.206288842183776050E-14, -4.231091694498385320E-16, 3.454948559408505204 ) ) ;
#83 = EDGE_LOOP ( 'NONE', ( #295, #241, #247 ) ) ;
#84 = CONICAL_SURFACE ( 'NONE', #66, 4.750000000000004441, 0.7853981633974479459 ) ;
#85 = VERTEX_POINT ( 'NONE', #145 ) ;
#86 = APPLICATION_PROTOCOL_DEFINITION ( 'international standard', 'config_control_design', 1994, #106 ) ;
#87 = ORIENTED_EDGE ( 'NONE', *, *, #249, .F. ) ;
#88 = FACE_OUTER_BOUND ( 'NONE', #238, .T. ) ;
#89 = EDGE_CURVE ( 'NONE', #125, #36, #232, .T. ) ;
#90 = CONICAL_SURFACE ( 'NONE', #78, 5.749999999999992895, 1.029744258676649649 ) ;
#91 = PERSON_AND_ORGANIZATION ( #74, #96 ) ;
#92 = MECHANICAL_CONTEXT ( 'NONE', #106, 'mechanical' ) ;
#93 = CC_DESIGN_PERSON_AND_ORGANIZATION_ASSIGNMENT ( #329, #230, ( #283 ) ) ;
#94 = CARTESIAN_POINT ( 'NONE',  ( 1.152188841818234133E-13, -4.041334437186266989E-15, 33.00000000000000000 ) ) ;
#95 = AXIS2_PLACEMENT_3D ( 'NONE', #307, #73, #180 ) ;
#96 = ORGANIZATION ( 'UNSPECIFIED', 'UNSPECIFIED', '' ) ;
#97 = DIRECTION ( 'NONE',  ( -3.491481338843133355E-15, 1.224646799147353454E-16, -1.000000000000000000 ) ) ;
#98 = DATE_TIME_ROLE ( 'classification_date' ) ;
#99 = CC_DESIGN_PERSON_AND_ORGANIZATION_ASSIGNMENT ( #251, #248, ( #153 ) ) ;
#100 = COORDINATED_UNIVERSAL_TIME_OFFSET ( 1, 0, .AHEAD. ) ;
#101 = LINE ( 'NONE', #186, #309 ) ;
#102 = DIRECTION ( 'NONE',  ( 4.275831445896959482E-31, 1.000000000000000000, 1.224646799147353454E-16 ) ) ;
#103 = ADVANCED_FACE ( 'NONE', ( #62 ), #270, .T. ) ;
#104 = DIRECTION ( 'NONE',  ( 4.275831445896959482E-31, 1.000000000000000000, 1.224646799147353454E-16 ) ) ;
#105 = CARTESIAN_POINT ( 'NONE',  ( 3.316907271900976814E-13, 4.749999999999992895, 95.00000000000000000 ) ) ;
#106 = APPLICATION_CONTEXT ( 'configuration controlled 3d designs of mechanical parts and assemblies' ) ;
#107 = AXIS2_PLACEMENT_3D ( 'NONE', #322, #275, #316 ) ;
#108 = ORIENTED_EDGE ( 'NONE', *, *, #259, .T. ) ;
#109 = DATE_AND_TIME ( #63, #79 ) ;
#110 = CARTESIAN_POINT ( 'NONE',  ( 1.206288842183776050E-14, -4.231091694498385320E-16, 3.454948559408505204 ) ) ;
#111 = CARTESIAN_POINT ( 'NONE',  ( 3.281992458512545606E-13, -1.151167991198512286E-14, 94.00000000000000000 ) ) ;
#112 = LOCAL_TIME ( 9, 22, 10.00000000000000000, #100 ) ;
#113 = ORIENTED_EDGE ( 'NONE', *, *, #217, .F. ) ;
#114 = APPROVAL_ROLE ( '' ) ;
#115 = CYLINDRICAL_SURFACE ( 'NONE', #14, 5.750000000000000888 ) ;
#116 = ORIENTED_EDGE ( 'NONE', *, *, #167, .F. ) ;
#117 = APPROVAL_DATE_TIME ( #256, #197 ) ;
#118 = AXIS2_PLACEMENT_3D ( 'NONE', #111, #300, #38 ) ;
#119 = ORIENTED_EDGE ( 'NONE', *, *, #150, .F. ) ;
#120 = EDGE_LOOP ( 'NONE', ( #67, #244 ) ) ;
#121 = ORIENTED_EDGE ( 'NONE', *, *, #69, .F. ) ;
#122 = CARTESIAN_POINT ( 'NONE',  ( 3.316907271900976814E-13, -1.163414459189985801E-14, 95.00000000000000000 ) ) ;
#123 = EDGE_CURVE ( 'NONE', #48, #36, #314, .T. ) ;
#124 = AXIS2_PLACEMENT_3D ( 'NONE', #229, #333, #23 ) ;
#125 = VERTEX_POINT ( 'NONE', #81 ) ;
#126 = DIRECTION ( 'NONE',  ( 0.0000000000000000000, 1.000000000000000000, 0.0000000000000000000 ) ) ;
#127 = CC_DESIGN_DATE_AND_TIME_ASSIGNMENT ( #12, #327, ( #153 ) ) ;
#128 = CARTESIAN_POINT ( 'NONE',  ( 2.458603081390749491E-30, 5.749999999999994671, 7.041719095097275949E-16 ) ) ;
#129 = LOCAL_TIME ( 9, 22, 10.00000000000000000, #220 ) ;
#130 = CARTESIAN_POINT ( 'NONE',  ( 1.152188841818234133E-13, 5.749999999999992895, 33.00000000000000000 ) ) ;
#131 = CC_DESIGN_PERSON_AND_ORGANIZATION_ASSIGNMENT ( #162, #140, ( #39 ) ) ;
#132 = CARTESIAN_POINT ( 'NONE',  ( 3.305879260902284616E-13, -4.750000000000015099, 95.00000000000000000 ) ) ;
#133 = DIRECTION ( 'NONE',  ( -3.491481338843133355E-15, 1.224646799147353454E-16, -1.000000000000000000 ) ) ;
#134 = DIRECTION ( 'NONE',  ( -3.491481338843133355E-15, 1.224646799147353454E-16, -1.000000000000000000 ) ) ;
#135 = EDGE_LOOP ( 'NONE', ( #87, #202 ) ) ;
#136 = AXIS2_PLACEMENT_3D ( 'NONE', #242, #16, #32 ) ;
#137 = LINE ( 'NONE', #243, #321 ) ;
#138 = PRODUCT_RELATED_PRODUCT_CATEGORY ( 'detail', '', ( #39 ) ) ;
#139 = VERTEX_POINT ( 'NONE', #105 ) ;
#140 = PERSON_AND_ORGANIZATION_ROLE ( 'design_owner' ) ;
#141 = CARTESIAN_POINT ( 'NONE',  ( 7.041719095097257214E-16, -5.750000000000000888, -7.041719095097307504E-16 ) ) ;
#142 = DIRECTION ( 'NONE',  ( -4.275831445896959482E-31, -1.000000000000000000, -1.224646799147353454E-16 ) ) ;
#143 = CALENDAR_DATE ( 2021, 3, 9 ) ;
#144 = PRODUCT_DEFINITION_SHAPE ( 'NONE', 'NONE',  #153 ) ;
#145 = CARTESIAN_POINT ( 'NONE',  ( 2.224132369260486699E-13, -5.750000000000001776, 33.00000000000000000 ) ) ;
#146 = CALENDAR_DATE ( 2021, 3, 9 ) ;
#147 = ORIENTED_EDGE ( 'NONE', *, *, #222, .T. ) ;
#148 = CARTESIAN_POINT ( 'NONE',  ( 1.152188841818234133E-13, 5.749999999999992895, 33.00000000000000000 ) ) ;
#149 = VECTOR ( 'NONE', #267, 1000.000000000000000 ) ;
#150 = EDGE_CURVE ( 'NONE', #139, #183, #201, .T. ) ;
#151 = APPROVAL_ROLE ( '' ) ;
#152 = VERTEX_POINT ( 'NONE', #274 ) ;
#153 = PRODUCT_DEFINITION ( 'UNKNOWN', '', #283, #175 ) ;
#154 = DIRECTION ( 'NONE',  ( 0.0000000000000000000, 1.000000000000000000, 0.0000000000000000000 ) ) ;
#155 = APPROVAL ( #37, 'UNSPECIFIED' ) ;
#156 = DIRECTION ( 'NONE',  ( 3.491481338843133355E-15, -1.224646799147353454E-16, 1.000000000000000000 ) ) ;
#157 = DIRECTION ( 'NONE',  ( -3.491481338843133355E-15, 1.224646799147353454E-16, -1.000000000000000000 ) ) ;
#158 = FACE_OUTER_BOUND ( 'NONE', #70, .T. ) ;
#159 = CARTESIAN_POINT ( 'NONE',  ( 7.041719095097250311E-16, -5.749999999999994671, -7.041719095097299615E-16 ) ) ;
#160 = EDGE_CURVE ( 'NONE', #36, #125, #291, .T. ) ;
#161 = DIRECTION ( 'NONE',  ( 0.0000000000000000000, 1.000000000000000000, 0.0000000000000000000 ) ) ;
#162 = PERSON_AND_ORGANIZATION ( #74, #96 ) ;
#163 = VECTOR ( 'NONE', #11, 1000.000000000000000 ) ;
#164 = APPROVAL_PERSON_ORGANIZATION ( #91, #324, #114 ) ;
#165 = CARTESIAN_POINT ( 'NONE',  ( 1.206288842183776050E-14, -4.231091694498385320E-16, 3.454948559408505204 ) ) ;
#166 = ORIENTED_EDGE ( 'NONE', *, *, #150, .T. ) ;
#167 = EDGE_CURVE ( 'NONE', #139, #152, #290, .T. ) ;
#168 = CIRCLE ( 'NONE', #118, 5.750000000000004441 ) ;
#169 = EDGE_LOOP ( 'NONE', ( #219, #331, #171, #121 ) ) ;
#170 = ORIENTED_EDGE ( 'NONE', *, *, #123, .F. ) ;
#171 = ORIENTED_EDGE ( 'NONE', *, *, #292, .F. ) ;
#172 = CC_DESIGN_PERSON_AND_ORGANIZATION_ASSIGNMENT ( #224, #228, ( #283 ) ) ;
#173 = ORIENTED_EDGE ( 'NONE', *, *, #123, .T. ) ;
#174 = AXIS2_PLACEMENT_3D ( 'NONE', #177, #77, #104 ) ;
#175 = DESIGN_CONTEXT ( 'detailed design', #260, 'design' ) ;
#176 = DIRECTION ( 'NONE',  ( -3.491481338843133355E-15, 1.224646799147353454E-16, -1.000000000000000000 ) ) ;
#177 = CARTESIAN_POINT ( 'NONE',  ( 3.316907271900976814E-13, 3.561929483821899503E-32, 95.00000000000000000 ) ) ;
#178 = CLOSED_SHELL ( 'NONE', ( #4, #179, #103, #185, #30 ) ) ;
#179 = ADVANCED_FACE ( 'NONE', ( #317 ), #90, .T. ) ;
#180 = DIRECTION ( 'NONE',  ( 0.0000000000000000000, 1.000000000000000000, 0.0000000000000000000 ) ) ;
#181 = DIRECTION ( 'NONE',  ( 3.491481338843133355E-15, -1.224646799147353454E-16, 1.000000000000000000 ) ) ;
#182 = AXIS2_PLACEMENT_3D ( 'NONE', #320, #76, #161 ) ;
#183 = VERTEX_POINT ( 'NONE', #132 ) ;
#184 = CALENDAR_DATE ( 2021, 3, 9 ) ;
#185 = ADVANCED_FACE ( 'NONE', ( #240 ), #6, .T. ) ;
#186 = CARTESIAN_POINT ( 'NONE',  ( 1.276706033134749075E-14, 5.749999999999992895, 3.454948559408505648 ) ) ;
#187 = LINE ( 'NONE', #245, #298 ) ;
#188 = DIRECTION ( 'NONE',  ( 0.0000000000000000000, 0.0000000000000000000, 1.000000000000000000 ) ) ;
#189 = AXIS2_PLACEMENT_3D ( 'NONE', #110, #258, #246 ) ;
#190 = ORIENTED_EDGE ( 'NONE', *, *, #231, .T. ) ;
#191 = PERSON_AND_ORGANIZATION ( #74, #96 ) ;
#192 = ADVANCED_FACE ( 'NONE', ( #88 ), #58, .T. ) ;
#193 = APPROVAL_ROLE ( '' ) ;
#194 = CARTESIAN_POINT ( 'NONE',  ( 0.0000000000000000000, 0.0000000000000000000, 0.0000000000000000000 ) ) ;
#195 = DIRECTION ( 'NONE',  ( 0.0000000000000000000, 1.000000000000000000, 0.0000000000000000000 ) ) ;
#196 = DIRECTION ( 'NONE',  ( 3.491481338843133355E-15, -1.224646799147353454E-16, 1.000000000000000000 ) ) ;
#197 = APPROVAL ( #285, 'UNSPECIFIED' ) ;
#198 = FACE_OUTER_BOUND ( 'NONE', #31, .T. ) ;
#199 = CARTESIAN_POINT ( 'NONE',  ( 1.206288842183775734E-14, -5.749999999999992895, 3.454948559408504316 ) ) ;
#200 = PERSON_AND_ORGANIZATION ( #74, #96 ) ;
#201 = CIRCLE ( 'NONE', #216, 4.750000000000004441 ) ;
#202 = ORIENTED_EDGE ( 'NONE', *, *, #284, .F. ) ;
#203 = DIRECTION ( 'NONE',  ( -3.491481338843133355E-15, 1.224646799147353454E-16, -1.000000000000000000 ) ) ;
#204 = DIRECTION ( 'NONE',  ( 1.903218546456022717E-15, 0.8571673007021097801, 0.5150380749100585964 ) ) ;
#205 = DIRECTION ( 'NONE',  ( -3.491481338843133355E-15, 1.224646799147353454E-16, -1.000000000000000000 ) ) ;
#206 = DIRECTION ( 'NONE',  ( 0.0000000000000000000, 1.000000000000000000, 0.0000000000000000000 ) ) ;
#207 = EDGE_CURVE ( 'NONE', #183, #265, #187, .T. ) ;
#208 = DIRECTION ( 'NONE',  ( -2.468850131082266527E-15, 0.7071067811865473507, -0.7071067811865477948 ) ) ;
#209 = ORIENTED_EDGE ( 'NONE', *, *, #259, .F. ) ;
#210 = FACE_OUTER_BOUND ( 'NONE', #255, .T. ) ;
#211 = COORDINATED_UNIVERSAL_TIME_OFFSET ( 1, 0, .AHEAD. ) ;
#212 = CIRCLE ( 'NONE', #182, 5.750000000000004441 ) ;
#213 = EDGE_LOOP ( 'NONE', ( #113, #147, #269, #323 ) ) ;
#214 = CARTESIAN_POINT ( 'NONE',  ( 0.0000000000000000000, 0.0000000000000000000, 0.0000000000000000000 ) ) ;
#215 = APPROVAL_DATE_TIME ( #109, #155 ) ;
#216 = AXIS2_PLACEMENT_3D ( 'NONE', #56, #157, #154 ) ;
#217 = EDGE_CURVE ( 'NONE', #265, #85, #9, .T. ) ;
#218 = CARTESIAN_POINT ( 'NONE',  ( 6.434505821134025880E-14, -5.750000000000001776, 33.00000000000000000 ) ) ;
#219 = ORIENTED_EDGE ( 'NONE', *, *, #19, .T. ) ;
#220 = COORDINATED_UNIVERSAL_TIME_OFFSET ( 1, 0, .AHEAD. ) ;
#221 = EDGE_LOOP ( 'NONE', ( #170, #51, #45, #49 ) ) ;
#222 = EDGE_CURVE ( 'NONE', #265, #152, #168, .T. ) ;
#223 = ORIENTED_EDGE ( 'NONE', *, *, #222, .F. ) ;
#224 = PERSON_AND_ORGANIZATION ( #74, #96 ) ;
#225 = CARTESIAN_POINT ( 'NONE',  ( 2.224132369260485689E-13, -5.750000000000014211, 94.00000000000000000 ) ) ;
#226 = VECTOR ( 'NONE', #134, 1000.000000000000000 ) ;
#227 = CC_DESIGN_APPROVAL ( #197, ( #299 ) ) ;
#228 = PERSON_AND_ORGANIZATION_ROLE ( 'creator' ) ;
#229 = CARTESIAN_POINT ( 'NONE',  ( 0.0000000000000000000, 0.0000000000000000000, 0.0000000000000000000 ) ) ;
#230 = PERSON_AND_ORGANIZATION_ROLE ( 'design_supplier' ) ;
#231 = EDGE_CURVE ( 'NONE', #277, #36, #250, .T. ) ;
#232 = CIRCLE ( 'NONE', #189, 5.749999999999992895 ) ;
#233 = DIRECTION ( 'NONE',  ( -3.491481338843133355E-15, 1.224646799147353454E-16, -1.000000000000000000 ) ) ;
#234 = DIRECTION ( 'NONE',  ( -5.359109410468836483E-31, -1.000000000000000000, -1.508455196501573155E-16 ) ) ;
#235 =( NAMED_UNIT ( * ) PLANE_ANGLE_UNIT ( ) SI_UNIT ( $, .RADIAN. ) );
#236 = SHAPE_DEFINITION_REPRESENTATION ( #144, #288 ) ;
#237 = CIRCLE ( 'NONE', #282, 5.749999999999997335 ) ;
#238 = EDGE_LOOP ( 'NONE', ( #166, #326, #34, #116 ) ) ;
#239 = CARTESIAN_POINT ( 'NONE',  ( 0.0000000000000000000, 0.0000000000000000000, 0.0000000000000000000 ) ) ;
#240 = FACE_OUTER_BOUND ( 'NONE', #221, .T. ) ;
#241 = ORIENTED_EDGE ( 'NONE', *, *, #25, .T. ) ;
#242 = CARTESIAN_POINT ( 'NONE',  ( 3.316907271900976814E-13, -1.163414459189985801E-14, 95.00000000000000000 ) ) ;
#243 = CARTESIAN_POINT ( 'NONE',  ( 2.458603081390752294E-30, 5.750000000000000888, 7.041719095097283838E-16 ) ) ;
#244 = ORIENTED_EDGE ( 'NONE', *, *, #268, .T. ) ;
#245 = CARTESIAN_POINT ( 'NONE',  ( 3.322724344196926418E-13, -4.750000000000015099, 95.00000000000000000 ) ) ;
#246 = DIRECTION ( 'NONE',  ( 5.359109410468836483E-31, 1.000000000000000000, 1.508455196501573155E-16 ) ) ;
#247 = ORIENTED_EDGE ( 'NONE', *, *, #89, .T. ) ;
#248 = PERSON_AND_ORGANIZATION_ROLE ( 'creator' ) ;
#249 = EDGE_CURVE ( 'NONE', #319, #48, #1, .T. ) ;
#250 = LINE ( 'NONE', #199, #149 ) ;
#251 = PERSON_AND_ORGANIZATION ( #74, #96 ) ;
#252 = CIRCLE ( 'NONE', #301, 5.749999999999997335 ) ;
#253 = AXIS2_PLACEMENT_3D ( 'NONE', #276, #272, #296 ) ;
#254 = CC_DESIGN_APPROVAL ( #324, ( #283 ) ) ;
#255 = EDGE_LOOP ( 'NONE', ( #119, #209 ) ) ;
#256 = DATE_AND_TIME ( #143, #112 ) ;
#257 = ORIENTED_EDGE ( 'NONE', *, *, #207, .F. ) ;
#258 = DIRECTION ( 'NONE',  ( -3.491481338843133355E-15, 1.224646799147353454E-16, -1.000000000000000000 ) ) ;
#259 = EDGE_CURVE ( 'NONE', #183, #139, #24, .T. ) ;
#260 = APPLICATION_CONTEXT ( 'configuration controlled 3d designs of mechanical parts and assemblies' ) ;
#261 = DIRECTION ( 'NONE',  ( 0.0000000000000000000, 1.000000000000000000, 0.0000000000000000000 ) ) ;
#262 = VERTEX_POINT ( 'NONE', #148 ) ;
#263 = AXIS2_PLACEMENT_3D ( 'NONE', #325, #196, #142 ) ;
#264 = AXIS2_PLACEMENT_3D ( 'NONE', #214, #188, #10 ) ;
#265 = VERTEX_POINT ( 'NONE', #225 ) ;
#266 = CALENDAR_DATE ( 2021, 3, 9 ) ;
#267 = DIRECTION ( 'NONE',  ( 1.798245827342160317E-15, -0.8571673007021098911, 0.5150380749100582634 ) ) ;
#268 = EDGE_CURVE ( 'NONE', #85, #262, #237, .T. ) ;
#269 = ORIENTED_EDGE ( 'NONE', *, *, #69, .T. ) ;
#270 = CONICAL_SURFACE ( 'NONE', #33, 5.749999999999992895, 1.029744258676649649 ) ;
#271 = LOCAL_TIME ( 9, 22, 10.00000000000000000, #211 ) ;
#272 = DIRECTION ( 'NONE',  ( -3.491481338843133355E-15, 1.224646799147353454E-16, -1.000000000000000000 ) ) ;
#273 = CC_DESIGN_DATE_AND_TIME_ASSIGNMENT ( #334, #98, ( #299 ) ) ;
#274 = CARTESIAN_POINT ( 'NONE',  ( 3.281992458512545606E-13, 5.749999999999992895, 94.00000000000000000 ) ) ;
#275 = DIRECTION ( 'NONE',  ( -3.491481338843133355E-15, 1.224646799147353454E-16, -1.000000000000000000 ) ) ;
#276 = CARTESIAN_POINT ( 'NONE',  ( 0.0000000000000000000, 0.0000000000000000000, 0.0000000000000000000 ) ) ;
#277 = VERTEX_POINT ( 'NONE', #302 ) ;
#278 = DIRECTION ( 'NONE',  ( 4.275831445896959482E-31, 1.000000000000000000, 1.224646799147353454E-16 ) ) ;
#279 = PLANE ( 'NONE',  #263 ) ;
#280 = ORIENTED_EDGE ( 'NONE', *, *, #160, .T. ) ;
#281 = EDGE_LOOP ( 'NONE', ( #72, #190, #280 ) ) ;
#282 = AXIS2_PLACEMENT_3D ( 'NONE', #330, #176, #195 ) ;
#283 = PRODUCT_DEFINITION_FORMATION_WITH_SPECIFIED_SOURCE ( 'ANY', '', #39, .NOT_KNOWN. ) ;
#284 = EDGE_CURVE ( 'NONE', #48, #319, #252, .T. ) ;
#285 = APPROVAL_STATUS ( 'not_yet_approved' ) ;
#286 = AXIS2_PLACEMENT_3D ( 'NONE', #239, #205, #102 ) ;
#287 =( LENGTH_UNIT ( ) NAMED_UNIT ( * ) SI_UNIT ( .MILLI., .METRE. ) );
#288 = ADVANCED_BREP_SHAPE_REPRESENTATION ( '41092', ( #52, #59, #264 ), #315 ) ;
#289 = PLANE ( 'NONE',  #174 ) ;
#290 = LINE ( 'NONE', #26, #61 ) ;
#291 = CIRCLE ( 'NONE', #107, 5.749999999999992895 ) ;
#292 = EDGE_CURVE ( 'NONE', #262, #85, #328, .T. ) ;
#293 = PLANE ( 'NONE',  #27 ) ;
#294 = APPROVAL_STATUS ( 'not_yet_approved' ) ;
#295 = ORIENTED_EDGE ( 'NONE', *, *, #231, .F. ) ;
#296 = DIRECTION ( 'NONE',  ( 4.275831445896959482E-31, 1.000000000000000000, 1.224646799147353454E-16 ) ) ;
#297 = ADVANCED_FACE ( 'NONE', ( #210 ), #289, .F. ) ;
#298 = VECTOR ( 'NONE', #17, 1000.000000000000000 ) ;
#299 = SECURITY_CLASSIFICATION ( '', '', #305 ) ;
#300 = DIRECTION ( 'NONE',  ( -3.491481338843133355E-15, 1.224646799147353454E-16, -1.000000000000000000 ) ) ;
#301 = AXIS2_PLACEMENT_3D ( 'NONE', #68, #97, #46 ) ;
#302 = CARTESIAN_POINT ( 'NONE',  ( 0.0000000000000000000, 0.0000000000000000000, 0.0000000000000000000 ) ) ;
#303 = UNCERTAINTY_MEASURE_WITH_UNIT (LENGTH_MEASURE( 1.000000000000000082E-05 ), #287, 'distance_accuracy_value', 'NONE');
#304 = PERSON_AND_ORGANIZATION ( #74, #96 ) ;
#305 = SECURITY_CLASSIFICATION_LEVEL ( 'unclassified' ) ;
#306 = ORIENTED_EDGE ( 'NONE', *, *, #249, .T. ) ;
#307 = CARTESIAN_POINT ( 'NONE',  ( 1.152188841818234133E-13, -4.041334437186266989E-15, 33.00000000000000000 ) ) ;
#308 = ADVANCED_FACE ( 'NONE', ( #5 ), #293, .F. ) ;
#309 = VECTOR ( 'NONE', #204, 999.9999999999998863 ) ;
#310 = DIRECTION ( 'NONE',  ( 3.491481338843133355E-15, -1.224646799147353454E-16, 1.000000000000000000 ) ) ;
#311 = FACE_OUTER_BOUND ( 'NONE', #135, .T. ) ;
#312 = ADVANCED_FACE ( 'NONE', ( #158 ), #84, .T. ) ;
#313 =( NAMED_UNIT ( * ) SI_UNIT ( $, .STERADIAN. ) SOLID_ANGLE_UNIT ( ) );
#314 = LINE ( 'NONE', #159, #226 ) ;
#315 =( GEOMETRIC_REPRESENTATION_CONTEXT ( 3 ) GLOBAL_UNCERTAINTY_ASSIGNED_CONTEXT ( ( #303 ) ) GLOBAL_UNIT_ASSIGNED_CONTEXT ( ( #287, #235, #313 ) ) REPRESENTATION_CONTEXT ( 'NONE', 'WORKASPACE' ) );
#316 = DIRECTION ( 'NONE',  ( 5.359109410468836483E-31, 1.000000000000000000, 1.508455196501573155E-16 ) ) ;
#317 = FACE_OUTER_BOUND ( 'NONE', #83, .T. ) ;
#318 = EDGE_CURVE ( 'NONE', #319, #125, #55, .T. ) ;
#319 = VERTEX_POINT ( 'NONE', #130 ) ;
#320 = CARTESIAN_POINT ( 'NONE',  ( 3.281992458512545606E-13, -1.151167991198512286E-14, 94.00000000000000000 ) ) ;
#321 = VECTOR ( 'NONE', #65, 1000.000000000000000 ) ;
#322 = CARTESIAN_POINT ( 'NONE',  ( 1.206288842183776050E-14, -4.231091694498385320E-16, 3.454948559408505204 ) ) ;
#323 = ORIENTED_EDGE ( 'NONE', *, *, #268, .F. ) ;
#324 = APPROVAL ( #294, 'UNSPECIFIED' ) ;
#325 = CARTESIAN_POINT ( 'NONE',  ( 1.152188841818234133E-13, 4.311809375152834328E-32, 33.00000000000000000 ) ) ;
#326 = ORIENTED_EDGE ( 'NONE', *, *, #207, .T. ) ;
#327 = DATE_TIME_ROLE ( 'creation_date' ) ;
#328 = CIRCLE ( 'NONE', #95, 5.749999999999997335 ) ;
#329 = PERSON_AND_ORGANIZATION ( #74, #96 ) ;
#330 = CARTESIAN_POINT ( 'NONE',  ( 1.152188841818234133E-13, -4.041334437186266989E-15, 33.00000000000000000 ) ) ;
#331 = ORIENTED_EDGE ( 'NONE', *, *, #217, .T. ) ;
#332 = ADVANCED_FACE ( 'NONE', ( #80 ), #337, .T. ) ;
#333 = DIRECTION ( 'NONE',  ( -3.491481338843133355E-15, 1.224646799147353454E-16, -1.000000000000000000 ) ) ;
#334 = DATE_AND_TIME ( #266, #15 ) ;
#335 = PERSON_AND_ORGANIZATION_ROLE ( 'classification_officer' ) ;
#336 = APPROVAL_PERSON_ORGANIZATION ( #200, #197, #151 ) ;
#337 = CYLINDRICAL_SURFACE ( 'NONE', #286, 5.750000000000000888 ) ;
ENDSEC;
END-ISO-10303-21;
