ISO-10303-21;
HEADER;
FILE_DESCRIPTION (( 'STEP AP203' ),
    '1' );
FILE_NAME ('41024.step',
    '2021-09-02T13:22:40',
    ( '' ),
    ( '' ),
    'SwSTEP 2.0',
    'SolidWorks 2019',
    '' );
FILE_SCHEMA (( 'CONFIG_CONTROL_DESIGN' ));
ENDSEC;

DATA;
#1 = DIRECTION ( 'NONE',  ( -3.491481338843133355E-15, 1.224646799147353454E-16, -1.000000000000000000 ) ) ;
#2 = VECTOR ( 'NONE', #3, 1000.000000000000000 ) ;
#3 = DIRECTION ( 'NONE',  ( -2.468850131082271655E-15, 0.7071067811865457964, -0.7071067811865492381 ) ) ;
#4 = CARTESIAN_POINT ( 'NONE',  ( 1.637473512766814010E-13, -1.400000000000001465, 33.00000000000000000 ) ) ;
#5 = CARTESIAN_POINT ( 'NONE',  ( 0.0000000000000000000, 0.0000000000000000000, 0.0000000000000000000 ) ) ;
#6 = CARTESIAN_POINT ( 'NONE',  ( 2.129803616694311221E-13, -7.470345474798856659E-15, 61.00000000000000000 ) ) ;
#7 = ADVANCED_FACE ( 'NONE', ( #257 ), #221, .T. ) ;
#8 = EDGE_LOOP ( 'NONE', ( #282, #143, #296, #148 ) ) ;
#9 = AXIS2_PLACEMENT_3D ( 'NONE', #317, #103, #43 ) ;
#10 = CARTESIAN_POINT ( 'NONE',  ( 0.0000000000000000000, 0.0000000000000000000, 0.0000000000000000000 ) ) ;
#11 = PERSON_AND_ORGANIZATION_ROLE ( 'creator' ) ;
#12 = ADVANCED_FACE ( 'NONE', ( #322 ), #123, .T. ) ;
#13 = VECTOR ( 'NONE', #105, 1000.000000000000000 ) ;
#14 = EDGE_LOOP ( 'NONE', ( #119, #180, #307, #321 ) ) ;
#15 = VERTEX_POINT ( 'NONE', #255 ) ;
#16 = VECTOR ( 'NONE', #193, 1000.000000000000000 ) ;
#17 = EDGE_CURVE ( 'NONE', #15, #200, #32, .T. ) ;
#18 = CARTESIAN_POINT ( 'NONE',  ( 2.937051094012660970E-15, -1.399999999999993028, 0.8412048666385892881 ) ) ;
#19 = DIRECTION ( 'NONE',  ( -4.275831445896959482E-31, -1.000000000000000000, -1.224646799147353454E-16 ) ) ;
#20 = ADVANCED_FACE ( 'NONE', ( #106 ), #177, .T. ) ;
#21 = CARTESIAN_POINT ( 'NONE',  ( 5.924941818979848607E-14, -1.400000000000001465, 33.00000000000000000 ) ) ;
#22 = PERSON_AND_ORGANIZATION_ROLE ( 'design_owner' ) ;
#23 = CIRCLE ( 'NONE', #162, 1.399999999999993028 ) ;
#24 = CARTESIAN_POINT ( 'NONE',  ( 2.129803616694311221E-13, -7.470345474798856659E-15, 61.00000000000000000 ) ) ;
#25 = DIRECTION ( 'NONE',  ( -5.502656983963558534E-31, -1.000000000000000000, -1.548860246407871225E-16 ) ) ;
#26 = DIRECTION ( 'NONE',  ( 5.502656983963558534E-31, 1.000000000000000000, 1.548860246407871225E-16 ) ) ;
#27 = CYLINDRICAL_SURFACE ( 'NONE', #208, 1.399999999999995248 ) ;
#28 = AXIS2_PLACEMENT_3D ( 'NONE', #96, #258, #315 ) ;
#29 = VERTEX_POINT ( 'NONE', #50 ) ;
#30 = CALENDAR_DATE ( 2021, 2, 9 ) ;
#31 = EDGE_CURVE ( 'NONE', #240, #215, #195, .T. ) ;
#32 = CIRCLE ( 'NONE', #80, 1.400000000000000577 ) ;
#33 = LOCAL_TIME ( 15, 22, 40.00000000000000000, #115 ) ;
#34 = ORIENTED_EDGE ( 'NONE', *, *, #170, .F. ) ;
#35 = APPROVAL_DATE_TIME ( #246, #92 ) ;
#36 = DIRECTION ( 'NONE',  ( -3.491481338843133355E-15, 1.224646799147353454E-16, -1.000000000000000000 ) ) ;
#37 = CC_DESIGN_APPROVAL ( #92, ( #94 ) ) ;
#38 = DIRECTION ( 'NONE',  ( 1.000000000000000000, 0.0000000000000000000, 0.0000000000000000000 ) ) ;
#39 = DIRECTION ( 'NONE',  ( 4.275831445896959482E-31, 1.000000000000000000, 1.224646799147353454E-16 ) ) ;
#40 = DIRECTION ( 'NONE',  ( 0.0000000000000000000, 1.000000000000000000, 0.0000000000000000000 ) ) ;
#41 = CARTESIAN_POINT ( 'NONE',  ( 1.714505518806287242E-16, -1.399999999999998801, -1.714505518806299322E-16 ) ) ;
#42 = AXIS2_PLACEMENT_3D ( 'NONE', #306, #228, #201 ) ;
#43 = DIRECTION ( 'NONE',  ( -4.275831445896959482E-31, -1.000000000000000000, -1.224646799147353454E-16 ) ) ;
#44 = APPROVAL_STATUS ( 'not_yet_approved' ) ;
#45 = CARTESIAN_POINT ( 'NONE',  ( 1.714505518806282559E-16, -1.399999999999995248, -1.714505518806294884E-16 ) ) ;
#46 = ORIENTED_EDGE ( 'NONE', *, *, #275, .F. ) ;
#47 = CARTESIAN_POINT ( 'NONE',  ( 0.0000000000000000000, 0.0000000000000000000, 0.0000000000000000000 ) ) ;
#48 = AXIS2_PLACEMENT_3D ( 'NONE', #6, #135, #131 ) ;
#49 = AXIS2_PLACEMENT_3D ( 'NONE', #276, #189, #40 ) ;
#50 = CARTESIAN_POINT ( 'NONE',  ( 2.126097203184980741E-13, -1.100000000000007860, 61.00000000000000000 ) ) ;
#51 = DIRECTION ( 'NONE',  ( 1.903218546456022717E-15, 0.8571673007021097801, 0.5150380749100585964 ) ) ;
#52 = EDGE_CURVE ( 'NONE', #29, #212, #166, .T. ) ;
#53 = DIRECTION ( 'NONE',  ( -3.491481338843133355E-15, 1.224646799147353454E-16, -1.000000000000000000 ) ) ;
#54 = CARTESIAN_POINT ( 'NONE',  ( 2.129803616694311221E-13, -7.470345474798856659E-15, 61.00000000000000000 ) ) ;
#55 = VECTOR ( 'NONE', #51, 999.9999999999998863 ) ;
#56 = SECURITY_CLASSIFICATION_LEVEL ( 'unclassified' ) ;
#57 = ORIENTED_EDGE ( 'NONE', *, *, #175, .F. ) ;
#58 = EDGE_CURVE ( 'NONE', #212, #200, #174, .T. ) ;
#59 = CALENDAR_DATE ( 2021, 2, 9 ) ;
#60 = PERSON_AND_ORGANIZATION ( #97, #305 ) ;
#61 = CIRCLE ( 'NONE', #288, 1.399999999999997469 ) ;
#62 = VERTEX_POINT ( 'NONE', #10 ) ;
#63 = VERTEX_POINT ( 'NONE', #290 ) ;
#64 = PERSON_AND_ORGANIZATION_ROLE ( 'creator' ) ;
#65 = FACE_OUTER_BOUND ( 'NONE', #187, .T. ) ;
#66 = CC_DESIGN_APPROVAL ( #249, ( #216 ) ) ;
#67 = CARTESIAN_POINT ( 'NONE',  ( 1.152188841818234133E-13, -4.041334437186266989E-15, 33.00000000000000000 ) ) ;
#68 = CARTESIAN_POINT ( 'NONE',  ( 2.131150728173373534E-13, -1.100000000000007860, 61.00000000000000000 ) ) ;
#69 = EDGE_LOOP ( 'NONE', ( #243, #108, #114, #46 ) ) ;
#70 = CALENDAR_DATE ( 2021, 2, 9 ) ;
#71 = DIRECTION ( 'NONE',  ( 0.0000000000000000000, 1.000000000000000000, 0.0000000000000000000 ) ) ;
#72 = AXIS2_PLACEMENT_3D ( 'NONE', #334, #36, #219 ) ;
#73 = EDGE_CURVE ( 'NONE', #200, #15, #314, .T. ) ;
#74 = PERSON_AND_ORGANIZATION ( #97, #305 ) ;
#75 = PLANE ( 'NONE',  #237 ) ;
#76 = VERTEX_POINT ( 'NONE', #21 ) ;
#77 = CARTESIAN_POINT ( 'NONE',  ( 1.152188841818234133E-13, -4.041334437186266989E-15, 33.00000000000000000 ) ) ;
#78 = ADVANCED_FACE ( 'NONE', ( #133 ), #130, .T. ) ;
#79 =( LENGTH_UNIT ( ) NAMED_UNIT ( * ) SI_UNIT ( .MILLI., .METRE. ) );
#80 = AXIS2_PLACEMENT_3D ( 'NONE', #291, #86, #206 ) ;
#81 = LOCAL_TIME ( 15, 22, 40.00000000000000000, #223 ) ;
#82 = AXIS2_PLACEMENT_3D ( 'NONE', #287, #292, #110 ) ;
#83 = CARTESIAN_POINT ( 'NONE',  ( 2.937051094012661759E-15, -1.030178847356124855E-16, 0.8412048666385895102 ) ) ;
#84 = EDGE_CURVE ( 'NONE', #63, #229, #23, .T. ) ;
#85 = EDGE_LOOP ( 'NONE', ( #327, #260, #176, #158 ) ) ;
#86 = DIRECTION ( 'NONE',  ( -3.491481338843133355E-15, 1.224646799147353454E-16, -1.000000000000000000 ) ) ;
#87 = CC_DESIGN_PERSON_AND_ORGANIZATION_ASSIGNMENT ( #297, #11, ( #94 ) ) ;
#88 = DESIGN_CONTEXT ( 'detailed design', #326, 'design' ) ;
#89 = ADVANCED_FACE ( 'NONE', ( #261 ), #27, .T. ) ;
#90 = LINE ( 'NONE', #18, #252 ) ;
#91 = APPROVAL_PERSON_ORGANIZATION ( #102, #249, #250 ) ;
#92 = APPROVAL ( #44, 'UNSPECIFIED' ) ;
#93 = ORIENTED_EDGE ( 'NONE', *, *, #310, .T. ) ;
#94 = PRODUCT_DEFINITION_FORMATION_WITH_SPECIFIED_SOURCE ( 'ANY', '', #152, .NOT_KNOWN. ) ;
#95 = MECHANICAL_CONTEXT ( 'NONE', #264, 'mechanical' ) ;
#96 = CARTESIAN_POINT ( 'NONE',  ( 2.937051094012661759E-15, -1.030178847356124855E-16, 0.8412048666385895102 ) ) ;
#97 = PERSON ( 'UNSPECIFIED', 'UNSPECIFIED', 'UNSPECIFIED', ('UNSPECIFIED'), ('UNSPECIFIED'), ('UNSPECIFIED') ) ;
#98 = CARTESIAN_POINT ( 'NONE',  ( 1.152188841818234133E-13, -4.041334437186266989E-15, 33.00000000000000000 ) ) ;
#99 = AXIS2_PLACEMENT_3D ( 'NONE', #5, #203, #318 ) ;
#100 = CARTESIAN_POINT ( 'NONE',  ( 5.986164024255738371E-31, 1.399999999999998801, 1.714505518806293405E-16 ) ) ;
#101 = AXIS2_PLACEMENT_3D ( 'NONE', #273, #308, #38 ) ;
#102 = PERSON_AND_ORGANIZATION ( #97, #305 ) ;
#103 = DIRECTION ( 'NONE',  ( 3.491481338843133355E-15, -1.224646799147353454E-16, 1.000000000000000000 ) ) ;
#104 = ORIENTED_EDGE ( 'NONE', *, *, #335, .T. ) ;
#105 = DIRECTION ( 'NONE',  ( -3.491481338843133355E-15, 1.224646799147353454E-16, -1.000000000000000000 ) ) ;
#106 = FACE_OUTER_BOUND ( 'NONE', #85, .T. ) ;
#107 = CIRCLE ( 'NONE', #247, 1.399999999999997469 ) ;
#108 = ORIENTED_EDGE ( 'NONE', *, *, #175, .T. ) ;
#109 = PERSON_AND_ORGANIZATION ( #97, #305 ) ;
#110 = DIRECTION ( 'NONE',  ( 0.0000000000000000000, 1.000000000000000000, 0.0000000000000000000 ) ) ;
#111 = APPROVAL_STATUS ( 'not_yet_approved' ) ;
#112 = CLOSED_SHELL ( 'NONE', ( #12, #259, #241, #138, #7, #164 ) ) ;
#113 = ORIENTED_EDGE ( 'NONE', *, *, #126, .F. ) ;
#114 = ORIENTED_EDGE ( 'NONE', *, *, #199, .T. ) ;
#115 = COORDINATED_UNIVERSAL_TIME_OFFSET ( 1, 0, .AHEAD. ) ;
#116 = EDGE_CURVE ( 'NONE', #146, #76, #156, .T. ) ;
#117 = APPLICATION_PROTOCOL_DEFINITION ( 'international standard', 'config_control_design', 1994, #264 ) ;
#118 = DIRECTION ( 'NONE',  ( 4.275831445896959482E-31, 1.000000000000000000, 1.224646799147353454E-16 ) ) ;
#119 = ORIENTED_EDGE ( 'NONE', *, *, #170, .T. ) ;
#120 = AXIS2_PLACEMENT_3D ( 'NONE', #161, #217, #39 ) ;
#121 = DIRECTION ( 'NONE',  ( 1.798245827342160317E-15, -0.8571673007021098911, 0.5150380749100582634 ) ) ;
#122 = EDGE_LOOP ( 'NONE', ( #222, #209, #336 ) ) ;
#123 = CONICAL_SURFACE ( 'NONE', #48, 1.100000000000000533, 0.7853981633974457255 ) ;
#124 = CC_DESIGN_APPROVAL ( #204, ( #141 ) ) ;
#125 = LINE ( 'NONE', #100, #136 ) ;
#126 = EDGE_CURVE ( 'NONE', #62, #229, #90, .T. ) ;
#127 = ORIENTED_EDGE ( 'NONE', *, *, #116, .F. ) ;
#128 = APPLICATION_PROTOCOL_DEFINITION ( 'international standard', 'config_control_design', 1994, #326 ) ;
#129 = CARTESIAN_POINT ( 'NONE',  ( 2.119329172677781757E-13, 1.399999999999993250, 60.69999999999999574 ) ) ;
#130 = CONICAL_SURFACE ( 'NONE', #330, 1.399999999999993028, 1.029744258676649649 ) ;
#131 = DIRECTION ( 'NONE',  ( 0.0000000000000000000, 1.000000000000000000, 0.0000000000000000000 ) ) ;
#132 = PLANE ( 'NONE',  #9 ) ;
#133 = FACE_OUTER_BOUND ( 'NONE', #268, .T. ) ;
#134 = MANIFOLD_SOLID_BREP ( 'Corps-Déplacer/Copier1[1]', #112 ) ;
#135 = DIRECTION ( 'NONE',  ( -3.491481338843133355E-15, 1.224646799147353454E-16, -1.000000000000000000 ) ) ;
#136 = VECTOR ( 'NONE', #253, 1000.000000000000000 ) ;
#137 = CARTESIAN_POINT ( 'NONE',  ( 0.0000000000000000000, 0.0000000000000000000, 0.0000000000000000000 ) ) ;
#138 = ADVANCED_FACE ( 'NONE', ( #65 ), #191, .T. ) ;
#139 = PRODUCT_RELATED_PRODUCT_CATEGORY ( 'detail', '', ( #152 ) ) ;
#140 = EDGE_CURVE ( 'NONE', #215, #240, #107, .T. ) ;
#141 = SECURITY_CLASSIFICATION ( '', '', #56 ) ;
#142 = LOCAL_TIME ( 15, 22, 40.00000000000000000, #211 ) ;
#143 = ORIENTED_EDGE ( 'NONE', *, *, #52, .T. ) ;
#144 = CC_DESIGN_DATE_AND_TIME_ASSIGNMENT ( #182, #159, ( #141 ) ) ;
#145 = CYLINDRICAL_SURFACE ( 'NONE', #274, 1.399999999999998801 ) ;
#146 = VERTEX_POINT ( 'NONE', #301 ) ;
#147 = DIRECTION ( 'NONE',  ( -3.491481338843133355E-15, 1.224646799147353454E-16, -1.000000000000000000 ) ) ;
#148 = ORIENTED_EDGE ( 'NONE', *, *, #17, .F. ) ;
#149 = FACE_OUTER_BOUND ( 'NONE', #122, .T. ) ;
#150 = ORIENTED_EDGE ( 'NONE', *, *, #31, .F. ) ;
#151 = DIRECTION ( 'NONE',  ( -2.382254525458722992E-15, -0.7071067811865455743, -0.7071067811865493491 ) ) ;
#152 = PRODUCT ( '41024', '41024', '', ( #95 ) ) ;
#153 = CARTESIAN_POINT ( 'NONE',  ( 2.937051094012661759E-15, -1.030178847356124855E-16, 0.8412048666385895102 ) ) ;
#154 = CARTESIAN_POINT ( 'NONE',  ( 2.129803616694311221E-13, 1.099999999999993205, 61.00000000000000000 ) ) ;
#155 = DIRECTION ( 'NONE',  ( 0.0000000000000000000, 1.000000000000000000, 0.0000000000000000000 ) ) ;
#156 = CIRCLE ( 'NONE', #49, 1.399999999999997469 ) ;
#157 = APPROVAL_ROLE ( '' ) ;
#158 = ORIENTED_EDGE ( 'NONE', *, *, #199, .F. ) ;
#159 = DATE_TIME_ROLE ( 'classification_date' ) ;
#160 = ORIENTED_EDGE ( 'NONE', *, *, #140, .F. ) ;
#161 = CARTESIAN_POINT ( 'NONE',  ( 0.0000000000000000000, 0.0000000000000000000, 0.0000000000000000000 ) ) ;
#162 = AXIS2_PLACEMENT_3D ( 'NONE', #83, #53, #26 ) ;
#163 = LINE ( 'NONE', #41, #190 ) ;
#164 = ADVANCED_FACE ( 'NONE', ( #263 ), #272, .F. ) ;
#165 = CARTESIAN_POINT ( 'NONE',  ( 2.129803616694311221E-13, -7.470345474798856659E-15, 61.00000000000000000 ) ) ;
#166 = CIRCLE ( 'NONE', #218, 1.100000000000000533 ) ;
#167 = CARTESIAN_POINT ( 'NONE',  ( 2.937051094012660970E-15, -1.399999999999993028, 0.8412048666385892881 ) ) ;
#168 = FACE_OUTER_BOUND ( 'NONE', #332, .T. ) ;
#169 = DIRECTION ( 'NONE',  ( 0.0000000000000000000, 1.000000000000000000, 0.0000000000000000000 ) ) ;
#170 = EDGE_CURVE ( 'NONE', #212, #29, #280, .T. ) ;
#171 = DIRECTION ( 'NONE',  ( -3.491481338843133355E-15, 1.224646799147353454E-16, -1.000000000000000000 ) ) ;
#172 = ADVANCED_FACE ( 'NONE', ( #168 ), #75, .T. ) ;
#173 = LINE ( 'NONE', #289, #55 ) ;
#174 = LINE ( 'NONE', #154, #2 ) ;
#175 = EDGE_CURVE ( 'NONE', #76, #146, #61, .T. ) ;
#176 = ORIENTED_EDGE ( 'NONE', *, *, #84, .F. ) ;
#177 = CYLINDRICAL_SURFACE ( 'NONE', #99, 1.399999999999995248 ) ;
#178 =( NAMED_UNIT ( * ) SI_UNIT ( $, .STERADIAN. ) SOLID_ANGLE_UNIT ( ) );
#179 = APPROVAL_PERSON_ORGANIZATION ( #74, #92, #333 ) ;
#180 = ORIENTED_EDGE ( 'NONE', *, *, #269, .T. ) ;
#181 = PERSON_AND_ORGANIZATION_ROLE ( 'design_supplier' ) ;
#182 = DATE_AND_TIME ( #59, #33 ) ;
#183 =( GEOMETRIC_REPRESENTATION_CONTEXT ( 3 ) GLOBAL_UNCERTAINTY_ASSIGNED_CONTEXT ( ( #238 ) ) GLOBAL_UNIT_ASSIGNED_CONTEXT ( ( #79, #239, #178 ) ) REPRESENTATION_CONTEXT ( 'NONE', 'WORKASPACE' ) );
#184 = ORIENTED_EDGE ( 'NONE', *, *, #17, .T. ) ;
#185 = APPROVAL_STATUS ( 'not_yet_approved' ) ;
#186 = EDGE_CURVE ( 'NONE', #200, #240, #125, .T. ) ;
#187 = EDGE_LOOP ( 'NONE', ( #194, #184, #248, #160 ) ) ;
#188 = CC_DESIGN_PERSON_AND_ORGANIZATION_ASSIGNMENT ( #109, #22, ( #152 ) ) ;
#189 = DIRECTION ( 'NONE',  ( -3.491481338843133355E-15, 1.224646799147353454E-16, -1.000000000000000000 ) ) ;
#190 = VECTOR ( 'NONE', #251, 1000.000000000000000 ) ;
#191 = CYLINDRICAL_SURFACE ( 'NONE', #120, 1.399999999999998801 ) ;
#192 = ORIENTED_EDGE ( 'NONE', *, *, #186, .F. ) ;
#193 = DIRECTION ( 'NONE',  ( -3.491481338843133355E-15, 1.224646799147353454E-16, -1.000000000000000000 ) ) ;
#194 = ORIENTED_EDGE ( 'NONE', *, *, #310, .F. ) ;
#195 = CIRCLE ( 'NONE', #293, 1.399999999999997469 ) ;
#196 = CONICAL_SURFACE ( 'NONE', #42, 1.399999999999993028, 1.029744258676649649 ) ;
#197 = DATE_TIME_ROLE ( 'creation_date' ) ;
#198 = LINE ( 'NONE', #337, #16 ) ;
#199 = EDGE_CURVE ( 'NONE', #146, #63, #198, .T. ) ;
#200 = VERTEX_POINT ( 'NONE', #129 ) ;
#201 = DIRECTION ( 'NONE',  ( -5.502656983963558534E-31, -1.000000000000000000, -1.548860246407871225E-16 ) ) ;
#202 = COORDINATED_UNIVERSAL_TIME_OFFSET ( 1, 0, .AHEAD. ) ;
#203 = DIRECTION ( 'NONE',  ( -3.491481338843133355E-15, 1.224646799147353454E-16, -1.000000000000000000 ) ) ;
#204 = APPROVAL ( #185, 'UNSPECIFIED' ) ;
#205 = CALENDAR_DATE ( 2021, 2, 9 ) ;
#206 = DIRECTION ( 'NONE',  ( 0.0000000000000000000, 1.000000000000000000, 0.0000000000000000000 ) ) ;
#207 = CLOSED_SHELL ( 'NONE', ( #20, #78, #298, #89, #172 ) ) ;
#208 = AXIS2_PLACEMENT_3D ( 'NONE', #137, #232, #118 ) ;
#209 = ORIENTED_EDGE ( 'NONE', *, *, #126, .T. ) ;
#210 = CC_DESIGN_PERSON_AND_ORGANIZATION_ASSIGNMENT ( #302, #64, ( #216 ) ) ;
#211 = COORDINATED_UNIVERSAL_TIME_OFFSET ( 1, 0, .AHEAD. ) ;
#212 = VERTEX_POINT ( 'NONE', #224 ) ;
#213 = ORIENTED_EDGE ( 'NONE', *, *, #73, .T. ) ;
#214 = APPROVAL_DATE_TIME ( #236, #204 ) ;
#215 = VERTEX_POINT ( 'NONE', #4 ) ;
#216 = PRODUCT_DEFINITION ( 'UNKNOWN', '', #94, #88 ) ;
#217 = DIRECTION ( 'NONE',  ( -3.491481338843133355E-15, 1.224646799147353454E-16, -1.000000000000000000 ) ) ;
#218 = AXIS2_PLACEMENT_3D ( 'NONE', #54, #171, #155 ) ;
#219 = DIRECTION ( 'NONE',  ( 4.275831445896959482E-31, 1.000000000000000000, 1.224646799147353454E-16 ) ) ;
#220 = DIRECTION ( 'NONE',  ( 0.0000000000000000000, 1.000000000000000000, 0.0000000000000000000 ) ) ;
#221 = CONICAL_SURFACE ( 'NONE', #304, 1.100000000000000533, 0.7853981633974457255 ) ;
#222 = ORIENTED_EDGE ( 'NONE', *, *, #335, .F. ) ;
#223 = COORDINATED_UNIVERSAL_TIME_OFFSET ( 1, 0, .AHEAD. ) ;
#224 = CARTESIAN_POINT ( 'NONE',  ( 2.129803616694311221E-13, 1.099999999999993205, 61.00000000000000000 ) ) ;
#225 = DATE_AND_TIME ( #70, #81 ) ;
#226 = DIRECTION ( 'NONE',  ( 3.491481338843133355E-15, -1.224646799147353454E-16, 1.000000000000000000 ) ) ;
#227 = APPROVAL_PERSON_ORGANIZATION ( #329, #204, #157 ) ;
#228 = DIRECTION ( 'NONE',  ( 3.491481338843133355E-15, -1.224646799147353454E-16, 1.000000000000000000 ) ) ;
#229 = VERTEX_POINT ( 'NONE', #167 ) ;
#230 = FACE_OUTER_BOUND ( 'NONE', #270, .T. ) ;
#231 = ORIENTED_EDGE ( 'NONE', *, *, #140, .T. ) ;
#232 = DIRECTION ( 'NONE',  ( -3.491481338843133355E-15, 1.224646799147353454E-16, -1.000000000000000000 ) ) ;
#233 = AXIS2_PLACEMENT_3D ( 'NONE', #165, #309, #71 ) ;
#234 = DIRECTION ( 'NONE',  ( -3.491481338843133355E-15, 1.224646799147353454E-16, -1.000000000000000000 ) ) ;
#235 = ADVANCED_BREP_SHAPE_REPRESENTATION ( '41024', ( #134, #242, #101 ), #183 ) ;
#236 = DATE_AND_TIME ( #30, #266 ) ;
#237 = AXIS2_PLACEMENT_3D ( 'NONE', #279, #286, #19 ) ;
#238 = UNCERTAINTY_MEASURE_WITH_UNIT (LENGTH_MEASURE( 1.000000000000000082E-05 ), #79, 'distance_accuracy_value', 'NONE');
#239 =( NAMED_UNIT ( * ) PLANE_ANGLE_UNIT ( ) SI_UNIT ( $, .RADIAN. ) );
#240 = VERTEX_POINT ( 'NONE', #256 ) ;
#241 = ADVANCED_FACE ( 'NONE', ( #283 ), #132, .F. ) ;
#242 = MANIFOLD_SOLID_BREP ( 'Corps-Déplacer/Copier1[2]', #207 ) ;
#243 = ORIENTED_EDGE ( 'NONE', *, *, #281, .F. ) ;
#245 = APPROVAL_DATE_TIME ( #225, #249 ) ;
#244 = CC_DESIGN_PERSON_AND_ORGANIZATION_ASSIGNMENT ( #295, #271, ( #141 ) ) ;
#246 = DATE_AND_TIME ( #205, #267 ) ;
#247 = AXIS2_PLACEMENT_3D ( 'NONE', #67, #331, #220 ) ;
#248 = ORIENTED_EDGE ( 'NONE', *, *, #186, .T. ) ;
#249 = APPROVAL ( #111, 'UNSPECIFIED' ) ;
#250 = APPROVAL_ROLE ( '' ) ;
#251 = DIRECTION ( 'NONE',  ( -3.491481338843133355E-15, 1.224646799147353454E-16, -1.000000000000000000 ) ) ;
#252 = VECTOR ( 'NONE', #121, 1000.000000000000000 ) ;
#253 = DIRECTION ( 'NONE',  ( -3.491481338843133355E-15, 1.224646799147353454E-16, -1.000000000000000000 ) ) ;
#254 = DIRECTION ( 'NONE',  ( 4.275831445896959482E-31, 1.000000000000000000, 1.224646799147353454E-16 ) ) ;
#255 = CARTESIAN_POINT ( 'NONE',  ( 1.637473512766813001E-13, -1.400000000000007905, 60.69999999999999574 ) ) ;
#256 = CARTESIAN_POINT ( 'NONE',  ( 1.152188841818234133E-13, 1.399999999999993250, 33.00000000000000000 ) ) ;
#257 = FACE_OUTER_BOUND ( 'NONE', #8, .T. ) ;
#258 = DIRECTION ( 'NONE',  ( -3.491481338843133355E-15, 1.224646799147353454E-16, -1.000000000000000000 ) ) ;
#259 = ADVANCED_FACE ( 'NONE', ( #230 ), #145, .T. ) ;
#260 = ORIENTED_EDGE ( 'NONE', *, *, #281, .T. ) ;
#261 = FACE_OUTER_BOUND ( 'NONE', #69, .T. ) ;
#262 = PRODUCT_DEFINITION_SHAPE ( 'NONE', 'NONE',  #216 ) ;
#263 = FACE_OUTER_BOUND ( 'NONE', #324, .T. ) ;
#264 = APPLICATION_CONTEXT ( 'configuration controlled 3d designs of mechanical parts and assemblies' ) ;
#265 = COORDINATED_UNIVERSAL_TIME_OFFSET ( 1, 0, .AHEAD. ) ;
#266 = LOCAL_TIME ( 15, 22, 40.00000000000000000, #265 ) ;
#267 = LOCAL_TIME ( 15, 22, 40.00000000000000000, #202 ) ;
#268 = EDGE_LOOP ( 'NONE', ( #113, #104, #294 ) ) ;
#269 = EDGE_CURVE ( 'NONE', #29, #15, #277, .T. ) ;
#270 = EDGE_LOOP ( 'NONE', ( #213, #93, #150, #192 ) ) ;
#271 = PERSON_AND_ORGANIZATION_ROLE ( 'classification_officer' ) ;
#272 = PLANE ( 'NONE',  #72 ) ;
#273 = CARTESIAN_POINT ( 'NONE',  ( 0.0000000000000000000, 0.0000000000000000000, 0.0000000000000000000 ) ) ;
#274 = AXIS2_PLACEMENT_3D ( 'NONE', #47, #147, #254 ) ;
#275 = EDGE_CURVE ( 'NONE', #229, #63, #325, .T. ) ;
#276 = CARTESIAN_POINT ( 'NONE',  ( 1.152188841818234133E-13, -4.041334437186266989E-15, 33.00000000000000000 ) ) ;
#277 = LINE ( 'NONE', #68, #300 ) ;
#278 = ORIENTED_EDGE ( 'NONE', *, *, #31, .T. ) ;
#279 = CARTESIAN_POINT ( 'NONE',  ( 1.152188841818234133E-13, 1.049831847863292525E-32, 33.00000000000000000 ) ) ;
#280 = CIRCLE ( 'NONE', #233, 1.100000000000000533 ) ;
#281 = EDGE_CURVE ( 'NONE', #76, #229, #284, .T. ) ;
#282 = ORIENTED_EDGE ( 'NONE', *, *, #269, .F. ) ;
#283 = FACE_OUTER_BOUND ( 'NONE', #316, .T. ) ;
#284 = LINE ( 'NONE', #45, #13 ) ;
#285 = DIRECTION ( 'NONE',  ( -3.491481338843133355E-15, 1.224646799147353454E-16, -1.000000000000000000 ) ) ;
#286 = DIRECTION ( 'NONE',  ( 3.491481338843133355E-15, -1.224646799147353454E-16, 1.000000000000000000 ) ) ;
#287 = CARTESIAN_POINT ( 'NONE',  ( 2.119329172677781757E-13, -7.433606070824434221E-15, 60.69999999999999574 ) ) ;
#288 = AXIS2_PLACEMENT_3D ( 'NONE', #98, #1, #312 ) ;
#289 = CARTESIAN_POINT ( 'NONE',  ( 3.108501645893291124E-15, 1.399999999999993028, 0.8412048666385897322 ) ) ;
#290 = CARTESIAN_POINT ( 'NONE',  ( 3.108501645893291124E-15, 1.399999999999993028, 0.8412048666385897322 ) ) ;
#291 = CARTESIAN_POINT ( 'NONE',  ( 2.119329172677781757E-13, -7.433606070824434221E-15, 60.69999999999999574 ) ) ;
#292 = DIRECTION ( 'NONE',  ( -3.491481338843133355E-15, 1.224646799147353454E-16, -1.000000000000000000 ) ) ;
#293 = AXIS2_PLACEMENT_3D ( 'NONE', #77, #234, #319 ) ;
#294 = ORIENTED_EDGE ( 'NONE', *, *, #84, .T. ) ;
#295 = PERSON_AND_ORGANIZATION ( #97, #305 ) ;
#296 = ORIENTED_EDGE ( 'NONE', *, *, #58, .T. ) ;
#297 = PERSON_AND_ORGANIZATION ( #97, #305 ) ;
#298 = ADVANCED_FACE ( 'NONE', ( #149 ), #196, .T. ) ;
#299 = ORIENTED_EDGE ( 'NONE', *, *, #52, .F. ) ;
#300 = VECTOR ( 'NONE', #151, 1000.000000000000114 ) ;
#301 = CARTESIAN_POINT ( 'NONE',  ( 1.152188841818234133E-13, 1.399999999999993250, 33.00000000000000000 ) ) ;
#302 = PERSON_AND_ORGANIZATION ( #97, #305 ) ;
#303 = DATE_AND_TIME ( #311, #142 ) ;
#304 = AXIS2_PLACEMENT_3D ( 'NONE', #24, #285, #169 ) ;
#305 = ORGANIZATION ( 'UNSPECIFIED', 'UNSPECIFIED', '' ) ;
#306 = CARTESIAN_POINT ( 'NONE',  ( 2.937051094012661759E-15, -1.030178847356124855E-16, 0.8412048666385895102 ) ) ;
#307 = ORIENTED_EDGE ( 'NONE', *, *, #73, .F. ) ;
#308 = DIRECTION ( 'NONE',  ( 0.0000000000000000000, 0.0000000000000000000, 1.000000000000000000 ) ) ;
#309 = DIRECTION ( 'NONE',  ( -3.491481338843133355E-15, 1.224646799147353454E-16, -1.000000000000000000 ) ) ;
#310 = EDGE_CURVE ( 'NONE', #15, #215, #163, .T. ) ;
#311 = CALENDAR_DATE ( 2021, 2, 9 ) ;
#312 = DIRECTION ( 'NONE',  ( 0.0000000000000000000, 1.000000000000000000, 0.0000000000000000000 ) ) ;
#313 = CC_DESIGN_PERSON_AND_ORGANIZATION_ASSIGNMENT ( #60, #181, ( #94 ) ) ;
#314 = CIRCLE ( 'NONE', #82, 1.400000000000000577 ) ;
#315 = DIRECTION ( 'NONE',  ( 5.502656983963558534E-31, 1.000000000000000000, 1.548860246407871225E-16 ) ) ;
#316 = EDGE_LOOP ( 'NONE', ( #278, #231 ) ) ;
#317 = CARTESIAN_POINT ( 'NONE',  ( 1.152188841818234133E-13, 1.049831847863292525E-32, 33.00000000000000000 ) ) ;
#318 = DIRECTION ( 'NONE',  ( 4.275831445896959482E-31, 1.000000000000000000, 1.224646799147353454E-16 ) ) ;
#319 = DIRECTION ( 'NONE',  ( 0.0000000000000000000, 1.000000000000000000, 0.0000000000000000000 ) ) ;
#320 = CC_DESIGN_SECURITY_CLASSIFICATION ( #141, ( #94 ) ) ;
#321 = ORIENTED_EDGE ( 'NONE', *, *, #58, .F. ) ;
#322 = FACE_OUTER_BOUND ( 'NONE', #14, .T. ) ;
#323 = CC_DESIGN_DATE_AND_TIME_ASSIGNMENT ( #303, #197, ( #216 ) ) ;
#324 = EDGE_LOOP ( 'NONE', ( #34, #299 ) ) ;
#325 = CIRCLE ( 'NONE', #28, 1.399999999999993028 ) ;
#326 = APPLICATION_CONTEXT ( 'configuration controlled 3d designs of mechanical parts and assemblies' ) ;
#327 = ORIENTED_EDGE ( 'NONE', *, *, #116, .T. ) ;
#328 = SHAPE_DEFINITION_REPRESENTATION ( #262, #235 ) ;
#329 = PERSON_AND_ORGANIZATION ( #97, #305 ) ;
#330 = AXIS2_PLACEMENT_3D ( 'NONE', #153, #226, #25 ) ;
#331 = DIRECTION ( 'NONE',  ( -3.491481338843133355E-15, 1.224646799147353454E-16, -1.000000000000000000 ) ) ;
#332 = EDGE_LOOP ( 'NONE', ( #127, #57 ) ) ;
#333 = APPROVAL_ROLE ( '' ) ;
#334 = CARTESIAN_POINT ( 'NONE',  ( 2.129803616694311221E-13, 8.248678804640114209E-33, 61.00000000000000000 ) ) ;
#335 = EDGE_CURVE ( 'NONE', #62, #63, #173, .T. ) ;
#336 = ORIENTED_EDGE ( 'NONE', *, *, #275, .T. ) ;
#337 = CARTESIAN_POINT ( 'NONE',  ( 5.986164024255723482E-31, 1.399999999999995248, 1.714505518806288968E-16 ) ) ;
ENDSEC;
END-ISO-10303-21;
