ISO-10303-21;
HEADER;
FILE_DESCRIPTION (( 'STEP AP203' ),
    '1' );
FILE_NAME ('40978.step',
    '2021-09-02T13:22:40',
    ( '' ),
    ( '' ),
    'SwSTEP 2.0',
    'SolidWorks 2019',
    '' );
FILE_SCHEMA (( 'CONFIG_CONTROL_DESIGN' ));
ENDSEC;

DATA;
#1 = DIRECTION ( 'NONE',  ( -3.491481338843133355E-15, 1.224646799147353207E-16, -1.000000000000000000 ) ) ;
#2 = ORIENTED_EDGE ( 'NONE', *, *, #129, .T. ) ;
#3 = DIRECTION ( 'NONE',  ( -3.081487911019616339E-31, -1.000000000000000000, -8.673617379884145173E-17 ) ) ;
#4 = DATE_AND_TIME ( #135, #105 ) ;
#5 = APPROVAL_DATE_TIME ( #214, #260 ) ;
#6 = LINE ( 'NONE', #41, #38 ) ;
#7 = ADVANCED_FACE ( 'NONE', ( #267 ), #323, .T. ) ;
#8 = DIRECTION ( 'NONE',  ( 0.0000000000000000000, 1.000000000000000000, 0.0000000000000000000 ) ) ;
#9 = CARTESIAN_POINT ( 'NONE',  ( 2.622367048225572360E-15, -9.198025422822477050E-17, 0.7510757737844495630 ) ) ;
#10 = CARTESIAN_POINT ( 'NONE',  ( 1.990144363140585886E-13, -6.980486755139912911E-15, 56.99999999999999289 ) ) ;
#11 = ADVANCED_FACE ( 'NONE', ( #185 ), #45, .T. ) ;
#12 = CLOSED_SHELL ( 'NONE', ( #250, #106, #193, #279, #205, #186 ) ) ;
#13 = AXIS2_PLACEMENT_3D ( 'NONE', #154, #269, #232 ) ;
#14 = ORIENTED_EDGE ( 'NONE', *, *, #92, .F. ) ;
#15 = ORIENTED_EDGE ( 'NONE', *, *, #37, .T. ) ;
#16 = AXIS2_PLACEMENT_3D ( 'NONE', #293, #65, #55 ) ;
#17 = EDGE_CURVE ( 'NONE', #335, #304, #191, .T. ) ;
#18 = CARTESIAN_POINT ( 'NONE',  ( 1.990144363140585886E-13, 0.9499999999999838574, 56.99999999999999289 ) ) ;
#19 = DIRECTION ( 'NONE',  ( -3.491481338843133355E-15, 1.224646799147353207E-16, -1.000000000000000000 ) ) ;
#20 = CIRCLE ( 'NONE', #32, 1.249999999999987788 ) ;
#21 =( LENGTH_UNIT ( ) NAMED_UNIT ( * ) SI_UNIT ( .MILLI., .METRE. ) );
#22 = CC_DESIGN_PERSON_AND_ORGANIZATION_ASSIGNMENT ( #99, #315, ( #64 ) ) ;
#23 = EDGE_LOOP ( 'NONE', ( #303, #157 ) ) ;
#24 = DIRECTION ( 'NONE',  ( 4.275831445896958607E-31, 1.000000000000000000, 1.224646799147353207E-16 ) ) ;
#25 = DATE_AND_TIME ( #167, #98 ) ;
#26 = PERSON_AND_ORGANIZATION ( #275, #166 ) ;
#27 = CC_DESIGN_APPROVAL ( #182, ( #209 ) ) ;
#28 = FACE_OUTER_BOUND ( 'NONE', #67, .T. ) ;
#29 = COORDINATED_UNIVERSAL_TIME_OFFSET ( 1, 0, .AHEAD. ) ;
#30 = DIRECTION ( 'NONE',  ( -3.491481338843133355E-15, 1.224646799147353207E-16, -1.000000000000000000 ) ) ;
#31 = ORIENTED_EDGE ( 'NONE', *, *, #129, .F. ) ;
#32 = AXIS2_PLACEMENT_3D ( 'NONE', #220, #74, #221 ) ;
#33 = CARTESIAN_POINT ( 'NONE',  ( 0.0000000000000000000, 0.0000000000000000000, 0.0000000000000000000 ) ) ;
#34 = AXIS2_PLACEMENT_3D ( 'NONE', #266, #101, #149 ) ;
#35 = PERSON_AND_ORGANIZATION ( #275, #166 ) ;
#36 = ORIENTED_EDGE ( 'NONE', *, *, #172, .F. ) ;
#37 = EDGE_CURVE ( 'NONE', #330, #194, #211, .T. ) ;
#38 = VECTOR ( 'NONE', #48, 1000.000000000000114 ) ;
#39 = AXIS2_PLACEMENT_3D ( 'NONE', #9, #156, #271 ) ;
#40 = AXIS2_PLACEMENT_3D ( 'NONE', #10, #19, #259 ) ;
#41 = CARTESIAN_POINT ( 'NONE',  ( 2.775447898118990112E-15, 1.249999999999984235, 0.7510757737844496740 ) ) ;
#42 = ORIENTED_EDGE ( 'NONE', *, *, #270, .F. ) ;
#43 = FACE_OUTER_BOUND ( 'NONE', #130, .T. ) ;
#44 = APPLICATION_CONTEXT ( 'configuration controlled 3d designs of mechanical parts and assemblies' ) ;
#45 = CONICAL_SURFACE ( 'NONE', #222, 1.249999999999984235, 1.029744258676649427 ) ;
#46 = CC_DESIGN_PERSON_AND_ORGANIZATION_ASSIGNMENT ( #26, #131, ( #209 ) ) ;
#47 = APPROVAL_STATUS ( 'not_yet_approved' ) ;
#48 = DIRECTION ( 'NONE',  ( 1.903218546456023111E-15, 0.8571673007021096691, 0.5150380749100587074 ) ) ;
#49 = CARTESIAN_POINT ( 'NONE',  ( 1.515087968887431331E-13, -1.249999999999998224, 56.70000000000000284 ) ) ;
#50 = CARTESIAN_POINT ( 'NONE',  ( 5.344789307371153154E-31, 1.249999999999989342, 1.530808498934178505E-16 ) ) ;
#51 = EDGE_LOOP ( 'NONE', ( #234, #2, #163, #95 ) ) ;
#52 = AXIS2_PLACEMENT_3D ( 'NONE', #137, #245, #86 ) ;
#53 = AXIS2_PLACEMENT_3D ( 'NONE', #122, #316, #202 ) ;
#54 = DIRECTION ( 'NONE',  ( -3.491481338843133355E-15, 1.224646799147353207E-16, -1.000000000000000000 ) ) ;
#55 = DIRECTION ( 'NONE',  ( -3.081487911019616339E-31, -1.000000000000000000, -8.673617379884145173E-17 ) ) ;
#56 = PERSON_AND_ORGANIZATION_ROLE ( 'classification_officer' ) ;
#57 = CARTESIAN_POINT ( 'NONE',  ( 1.986254252611383216E-13, -0.9499999999999977351, 56.99999999999999289 ) ) ;
#58 = AXIS2_PLACEMENT_3D ( 'NONE', #187, #63, #178 ) ;
#59 = AXIS2_PLACEMENT_3D ( 'NONE', #69, #333, #162 ) ;
#60 = FACE_OUTER_BOUND ( 'NONE', #23, .T. ) ;
#61 = PERSON_AND_ORGANIZATION_ROLE ( 'design_supplier' ) ;
#62 = EDGE_CURVE ( 'NONE', #277, #161, #174, .T. ) ;
#63 = DIRECTION ( 'NONE',  ( -3.491481338843133355E-15, 1.224646799147353207E-16, -1.000000000000000000 ) ) ;
#64 = PRODUCT ( '40978', '40978', '', ( #278 ) ) ;
#65 = DIRECTION ( 'NONE',  ( 3.491481338843133355E-15, -1.224646799147353207E-16, 1.000000000000000000 ) ) ;
#66 = VECTOR ( 'NONE', #337, 1000.000000000000114 ) ;
#67 = EDGE_LOOP ( 'NONE', ( #15, #140, #70, #332 ) ) ;
#68 = ADVANCED_FACE ( 'NONE', ( #60 ), #188, .T. ) ;
#69 = CARTESIAN_POINT ( 'NONE',  ( 0.0000000000000000000, 0.0000000000000000000, 0.0000000000000000000 ) ) ;
#70 = ORIENTED_EDGE ( 'NONE', *, *, #62, .F. ) ;
#71 = ORIENTED_EDGE ( 'NONE', *, *, #228, .T. ) ;
#72 = APPROVAL_ROLE ( '' ) ;
#73 = LOCAL_TIME ( 15, 22, 40.00000000000000000, #107 ) ;
#74 = DIRECTION ( 'NONE',  ( -3.491481338843133355E-15, 1.224646799147353207E-16, -1.000000000000000000 ) ) ;
#75 = CC_DESIGN_DATE_AND_TIME_ASSIGNMENT ( #4, #138, ( #312 ) ) ;
#76 = DIRECTION ( 'NONE',  ( -2.382254525458692620E-15, -0.7071067811865540120, -0.7071067811865410224 ) ) ;
#77 = ORIENTED_EDGE ( 'NONE', *, *, #289, .T. ) ;
#78 = COORDINATED_UNIVERSAL_TIME_OFFSET ( 1, 0, .AHEAD. ) ;
#79 = CARTESIAN_POINT ( 'NONE',  ( 1.979669919124056423E-13, -6.943747351165492840E-15, 56.70000000000000284 ) ) ;
#80 = AXIS2_PLACEMENT_3D ( 'NONE', #213, #108, #298 ) ;
#81 = ADVANCED_FACE ( 'NONE', ( #83 ), #89, .T. ) ;
#82 = CARTESIAN_POINT ( 'NONE',  ( 5.383648445665304570E-14, -1.249999999999991562, 30.00000000000000000 ) ) ;
#83 = FACE_OUTER_BOUND ( 'NONE', #51, .T. ) ;
#84 = LINE ( 'NONE', #296, #325 ) ;
#85 = EDGE_CURVE ( 'NONE', #218, #249, #127, .T. ) ;
#86 = DIRECTION ( 'NONE',  ( 0.0000000000000000000, 1.000000000000000000, 0.0000000000000000000 ) ) ;
#87 = APPROVAL_STATUS ( 'not_yet_approved' ) ;
#88 = ADVANCED_FACE ( 'NONE', ( #299 ), #97, .T. ) ;
#89 = CYLINDRICAL_SURFACE ( 'NONE', #143, 1.249999999999986011 ) ;
#90 = DIRECTION ( 'NONE',  ( 0.0000000000000000000, 1.000000000000000000, 0.0000000000000000000 ) ) ;
#91 = CC_DESIGN_DATE_AND_TIME_ASSIGNMENT ( #262, #231, ( #209 ) ) ;
#92 = EDGE_CURVE ( 'NONE', #203, #286, #152, .T. ) ;
#93 = DIRECTION ( 'NONE',  ( -4.275831445896958607E-31, -1.000000000000000000, -1.224646799147353207E-16 ) ) ;
#94 = CIRCLE ( 'NONE', #159, 1.249999999999987788 ) ;
#95 = ORIENTED_EDGE ( 'NONE', *, *, #228, .F. ) ;
#96 = DIRECTION ( 'NONE',  ( 0.0000000000000000000, 1.000000000000000000, 0.0000000000000000000 ) ) ;
#97 = CONICAL_SURFACE ( 'NONE', #16, 1.249999999999984235, 1.029744258676649427 ) ;
#98 = LOCAL_TIME ( 15, 22, 40.00000000000000000, #204 ) ;
#99 = PERSON_AND_ORGANIZATION ( #275, #166 ) ;
#100 = ORIENTED_EDGE ( 'NONE', *, *, #305, .F. ) ;
#101 = DIRECTION ( 'NONE',  ( -3.491481338843133355E-15, 1.224646799147353207E-16, -1.000000000000000000 ) ) ;
#102 = CARTESIAN_POINT ( 'NONE',  ( 1.990144363140585886E-13, 0.9499999999999838574, 56.99999999999999289 ) ) ;
#103 = CIRCLE ( 'NONE', #53, 1.249999999999984235 ) ;
#104 = DIRECTION ( 'NONE',  ( -3.491481338843133355E-15, 1.224646799147353207E-16, -1.000000000000000000 ) ) ;
#105 = LOCAL_TIME ( 15, 22, 40.00000000000000000, #29 ) ;
#106 = ADVANCED_FACE ( 'NONE', ( #28 ), #272, .T. ) ;
#107 = COORDINATED_UNIVERSAL_TIME_OFFSET ( 1, 0, .AHEAD. ) ;
#108 = DIRECTION ( 'NONE',  ( 3.491481338843133355E-15, -1.224646799147353207E-16, 1.000000000000000000 ) ) ;
#109 = CARTESIAN_POINT ( 'NONE',  ( 2.775447898118990112E-15, 1.249999999999984235, 0.7510757737844496740 ) ) ;
#110 = DIRECTION ( 'NONE',  ( -3.491481338843133355E-15, 1.224646799147353207E-16, -1.000000000000000000 ) ) ;
#111 = PRODUCT_RELATED_PRODUCT_CATEGORY ( 'detail', '', ( #64 ) ) ;
#112 = CARTESIAN_POINT ( 'NONE',  ( 1.047444401652940007E-13, -3.673940397442059178E-15, 30.00000000000000000 ) ) ;
#113 = DATE_AND_TIME ( #170, #257 ) ;
#114 = ORIENTED_EDGE ( 'NONE', *, *, #223, .F. ) ;
#115 = CALENDAR_DATE ( 2021, 2, 9 ) ;
#116 = PRODUCT_DEFINITION_FORMATION_WITH_SPECIFIED_SOURCE ( 'ANY', '', #64, .NOT_KNOWN. ) ;
#117 = ORIENTED_EDGE ( 'NONE', *, *, #62, .T. ) ;
#118 = ORIENTED_EDGE ( 'NONE', *, *, #289, .F. ) ;
#119 = EDGE_CURVE ( 'NONE', #253, #286, #181, .T. ) ;
#120 = DIRECTION ( 'NONE',  ( -3.491481338843133355E-15, 1.224646799147353207E-16, -1.000000000000000000 ) ) ;
#121 = ORIENTED_EDGE ( 'NONE', *, *, #317, .T. ) ;
#122 = CARTESIAN_POINT ( 'NONE',  ( 2.622367048225572360E-15, -9.198025422822477050E-17, 0.7510757737844495630 ) ) ;
#123 = CARTESIAN_POINT ( 'NONE',  ( 1.990144363140585886E-13, 7.123858967643649843E-33, 56.99999999999999289 ) ) ;
#124 = COORDINATED_UNIVERSAL_TIME_OFFSET ( 1, 0, .AHEAD. ) ;
#125 = FACE_OUTER_BOUND ( 'NONE', #258, .T. ) ;
#126 = ORIENTED_EDGE ( 'NONE', *, *, #283, .T. ) ;
#127 = CIRCLE ( 'NONE', #58, 0.9499999999999907407 ) ;
#128 = FACE_OUTER_BOUND ( 'NONE', #229, .T. ) ;
#129 = EDGE_CURVE ( 'NONE', #304, #286, #84, .T. ) ;
#130 = EDGE_LOOP ( 'NONE', ( #118, #126, #215, #100 ) ) ;
#131 = PERSON_AND_ORGANIZATION_ROLE ( 'creator' ) ;
#132 =( NAMED_UNIT ( * ) SI_UNIT ( $, .STERADIAN. ) SOLID_ANGLE_UNIT ( ) );
#133 = CONICAL_SURFACE ( 'NONE', #40, 0.9499999999999907407, 0.7853981633974576049 ) ;
#134 = DIRECTION ( 'NONE',  ( -3.491481338843133355E-15, 1.224646799147353207E-16, -1.000000000000000000 ) ) ;
#135 = CALENDAR_DATE ( 2021, 2, 9 ) ;
#136 = FACE_OUTER_BOUND ( 'NONE', #192, .T. ) ;
#137 = CARTESIAN_POINT ( 'NONE',  ( 1.979669919124056423E-13, -6.943747351165492840E-15, 56.70000000000000284 ) ) ;
#138 = DATE_TIME_ROLE ( 'classification_date' ) ;
#139 = EDGE_LOOP ( 'NONE', ( #31, #280, #71, #114 ) ) ;
#140 = ORIENTED_EDGE ( 'NONE', *, *, #172, .T. ) ;
#141 = EDGE_CURVE ( 'NONE', #203, #253, #6, .T. ) ;
#142 = DESIGN_CONTEXT ( 'detailed design', #44, 'design' ) ;
#143 = AXIS2_PLACEMENT_3D ( 'NONE', #33, #180, #24 ) ;
#144 = EDGE_CURVE ( 'NONE', #161, #277, #94, .T. ) ;
#145 = CARTESIAN_POINT ( 'NONE',  ( 1.515087968887432341E-13, -1.249999999999991562, 30.00000000000000000 ) ) ;
#146 = ORIENTED_EDGE ( 'NONE', *, *, #144, .T. ) ;
#147 = CARTESIAN_POINT ( 'NONE',  ( 1.047444401652940007E-13, 1.249999999999984235, 30.00000000000000000 ) ) ;
#148 = EDGE_LOOP ( 'NONE', ( #14, #189, #201 ) ) ;
#149 = DIRECTION ( 'NONE',  ( 4.275831445896958607E-31, 1.000000000000000000, 1.224646799147353207E-16 ) ) ;
#150 = CARTESIAN_POINT ( 'NONE',  ( 2.622367048225571966E-15, -1.249999999999984235, 0.7510757737844494519 ) ) ;
#151 = APPROVAL_DATE_TIME ( #113, #182 ) ;
#152 = LINE ( 'NONE', #150, #336 ) ;
#153 = CLOSED_SHELL ( 'NONE', ( #81, #88, #11, #7, #68 ) ) ;
#154 = CARTESIAN_POINT ( 'NONE',  ( 1.990144363140585886E-13, -6.980486755139912911E-15, 56.99999999999999289 ) ) ;
#155 = CIRCLE ( 'NONE', #212, 0.9499999999999907407 ) ;
#156 = DIRECTION ( 'NONE',  ( -3.491481338843133355E-15, 1.224646799147353207E-16, -1.000000000000000000 ) ) ;
#157 = ORIENTED_EDGE ( 'NONE', *, *, #179, .F. ) ;
#158 = DIRECTION ( 'NONE',  ( 3.491481338843133355E-15, -1.224646799147353207E-16, 1.000000000000000000 ) ) ;
#159 = AXIS2_PLACEMENT_3D ( 'NONE', #200, #310, #96 ) ;
#160 = PLANE ( 'NONE',  #273 ) ;
#161 = VERTEX_POINT ( 'NONE', #145 ) ;
#162 = DIRECTION ( 'NONE',  ( 1.000000000000000000, 0.0000000000000000000, 0.0000000000000000000 ) ) ;
#163 = ORIENTED_EDGE ( 'NONE', *, *, #119, .F. ) ;
#164 = APPLICATION_PROTOCOL_DEFINITION ( 'international standard', 'config_control_design', 1994, #44 ) ;
#165 = AXIS2_PLACEMENT_3D ( 'NONE', #239, #134, #8 ) ;
#166 = ORGANIZATION ( 'UNSPECIFIED', 'UNSPECIFIED', '' ) ;
#167 = CALENDAR_DATE ( 2021, 2, 9 ) ;
#168 = APPROVAL_ROLE ( '' ) ;
#169 = PLANE ( 'NONE',  #319 ) ;
#170 = CALENDAR_DATE ( 2021, 2, 9 ) ;
#171 = LINE ( 'NONE', #50, #216 ) ;
#172 = EDGE_CURVE ( 'NONE', #194, #161, #224, .T. ) ;
#173 = DIRECTION ( 'NONE',  ( 0.0000000000000000000, 1.000000000000000000, 0.0000000000000000000 ) ) ;
#174 = CIRCLE ( 'NONE', #197, 1.249999999999987788 ) ;
#175 = EDGE_LOOP ( 'NONE', ( #217, #265, #314 ) ) ;
#176 = LINE ( 'NONE', #291, #247 ) ;
#177 = CARTESIAN_POINT ( 'NONE',  ( 1.990144363140585886E-13, -6.980486755139912911E-15, 56.99999999999999289 ) ) ;
#178 = DIRECTION ( 'NONE',  ( 0.0000000000000000000, 1.000000000000000000, 0.0000000000000000000 ) ) ;
#179 = EDGE_CURVE ( 'NONE', #304, #335, #20, .T. ) ;
#180 = DIRECTION ( 'NONE',  ( -3.491481338843133355E-15, 1.224646799147353207E-16, -1.000000000000000000 ) ) ;
#181 = CIRCLE ( 'NONE', #39, 1.249999999999984235 ) ;
#182 = APPROVAL ( #47, 'UNSPECIFIED' ) ;
#183 = PERSON_AND_ORGANIZATION ( #275, #166 ) ;
#184 = CIRCLE ( 'NONE', #276, 1.249999999999991118 ) ;
#185 = FACE_OUTER_BOUND ( 'NONE', #175, .T. ) ;
#186 = ADVANCED_FACE ( 'NONE', ( #125 ), #160, .F. ) ;
#187 = CARTESIAN_POINT ( 'NONE',  ( 1.990144363140585886E-13, -6.980486755139912911E-15, 56.99999999999999289 ) ) ;
#188 = PLANE ( 'NONE',  #80 ) ;
#189 = ORIENTED_EDGE ( 'NONE', *, *, #141, .T. ) ;
#190 = ADVANCED_BREP_SHAPE_REPRESENTATION ( '40978', ( #240, #251, #59 ), #331 ) ;
#191 = CIRCLE ( 'NONE', #165, 1.249999999999987788 ) ;
#192 = EDGE_LOOP ( 'NONE', ( #36, #242, #121, #237 ) ) ;
#193 = ADVANCED_FACE ( 'NONE', ( #311 ), #169, .F. ) ;
#194 = VERTEX_POINT ( 'NONE', #49 ) ;
#195 = CC_DESIGN_PERSON_AND_ORGANIZATION_ASSIGNMENT ( #35, #56, ( #312 ) ) ;
#196 = DIRECTION ( 'NONE',  ( -3.491481338843133355E-15, 1.224646799147353207E-16, -1.000000000000000000 ) ) ;
#197 = AXIS2_PLACEMENT_3D ( 'NONE', #112, #206, #90 ) ;
#198 = CONICAL_SURFACE ( 'NONE', #13, 0.9499999999999907407, 0.7853981633974576049 ) ;
#199 = APPROVAL_DATE_TIME ( #25, #297 ) ;
#200 = CARTESIAN_POINT ( 'NONE',  ( 1.047444401652940007E-13, -3.673940397442059178E-15, 30.00000000000000000 ) ) ;
#201 = ORIENTED_EDGE ( 'NONE', *, *, #119, .T. ) ;
#202 = DIRECTION ( 'NONE',  ( 3.081487911019616339E-31, 1.000000000000000000, 8.673617379884145173E-17 ) ) ;
#203 = VERTEX_POINT ( 'NONE', #256 ) ;
#204 = COORDINATED_UNIVERSAL_TIME_OFFSET ( 1, 0, .AHEAD. ) ;
#205 = ADVANCED_FACE ( 'NONE', ( #43 ), #133, .T. ) ;
#206 = DIRECTION ( 'NONE',  ( -3.491481338843133355E-15, 1.224646799147353207E-16, -1.000000000000000000 ) ) ;
#207 = LINE ( 'NONE', #102, #66 ) ;
#208 = ORIENTED_EDGE ( 'NONE', *, *, #283, .F. ) ;
#209 = PRODUCT_DEFINITION ( 'UNKNOWN', '', #116, #142 ) ;
#210 = ORIENTED_EDGE ( 'NONE', *, *, #85, .F. ) ;
#211 = CIRCLE ( 'NONE', #52, 1.249999999999991118 ) ;
#212 = AXIS2_PLACEMENT_3D ( 'NONE', #177, #1, #318 ) ;
#213 = CARTESIAN_POINT ( 'NONE',  ( 1.047444401652940007E-13, 9.373498641636466361E-33, 30.00000000000000000 ) ) ;
#214 = DATE_AND_TIME ( #255, #244 ) ;
#215 = ORIENTED_EDGE ( 'NONE', *, *, #270, .T. ) ;
#216 = VECTOR ( 'NONE', #54, 1000.000000000000000 ) ;
#217 = ORIENTED_EDGE ( 'NONE', *, *, #141, .F. ) ;
#218 = VERTEX_POINT ( 'NONE', #18 ) ;
#219 = CC_DESIGN_PERSON_AND_ORGANIZATION_ASSIGNMENT ( #322, #327, ( #116 ) ) ;
#220 = CARTESIAN_POINT ( 'NONE',  ( 1.047444401652940007E-13, -3.673940397442059178E-15, 30.00000000000000000 ) ) ;
#221 = DIRECTION ( 'NONE',  ( 0.0000000000000000000, 1.000000000000000000, 0.0000000000000000000 ) ) ;
#222 = AXIS2_PLACEMENT_3D ( 'NONE', #329, #158, #3 ) ;
#223 = EDGE_CURVE ( 'NONE', #286, #253, #103, .T. ) ;
#224 = LINE ( 'NONE', #246, #225 ) ;
#225 = VECTOR ( 'NONE', #120, 1000.000000000000000 ) ;
#226 = AXIS2_PLACEMENT_3D ( 'NONE', #235, #328, #326 ) ;
#227 = CC_DESIGN_APPROVAL ( #297, ( #312 ) ) ;
#228 = EDGE_CURVE ( 'NONE', #335, #253, #292, .T. ) ;
#229 = EDGE_LOOP ( 'NONE', ( #290, #77, #261, #42 ) ) ;
#230 = SHAPE_DEFINITION_REPRESENTATION ( #274, #190 ) ;
#231 = DATE_TIME_ROLE ( 'creation_date' ) ;
#232 = DIRECTION ( 'NONE',  ( 0.0000000000000000000, 1.000000000000000000, 0.0000000000000000000 ) ) ;
#233 = PERSON_AND_ORGANIZATION ( #275, #166 ) ;
#234 = ORIENTED_EDGE ( 'NONE', *, *, #17, .T. ) ;
#235 = CARTESIAN_POINT ( 'NONE',  ( 0.0000000000000000000, 0.0000000000000000000, 0.0000000000000000000 ) ) ;
#236 = APPROVAL_PERSON_ORGANIZATION ( #233, #260, #72 ) ;
#237 = ORIENTED_EDGE ( 'NONE', *, *, #144, .F. ) ;
#238 = CYLINDRICAL_SURFACE ( 'NONE', #34, 1.249999999999989342 ) ;
#239 = CARTESIAN_POINT ( 'NONE',  ( 1.047444401652940007E-13, -3.673940397442059178E-15, 30.00000000000000000 ) ) ;
#240 = MANIFOLD_SOLID_BREP ( 'Corps-Déplacer/Copier1[1]', #12 ) ;
#241 = PERSON_AND_ORGANIZATION ( #275, #166 ) ;
#242 = ORIENTED_EDGE ( 'NONE', *, *, #305, .T. ) ;
#243 = AXIS2_PLACEMENT_3D ( 'NONE', #301, #110, #324 ) ;
#244 = LOCAL_TIME ( 15, 22, 40.00000000000000000, #78 ) ;
#245 = DIRECTION ( 'NONE',  ( -3.491481338843133355E-15, 1.224646799147353207E-16, -1.000000000000000000 ) ) ;
#246 = CARTESIAN_POINT ( 'NONE',  ( 1.530808498934173082E-16, -1.249999999999989342, -1.530808498934183682E-16 ) ) ;
#247 = VECTOR ( 'NONE', #76, 1000.000000000000000 ) ;
#248 = UNCERTAINTY_MEASURE_WITH_UNIT (LENGTH_MEASURE( 1.000000000000000082E-05 ), #21, 'distance_accuracy_value', 'NONE');
#249 = VERTEX_POINT ( 'NONE', #57 ) ;
#250 = ADVANCED_FACE ( 'NONE', ( #128 ), #198, .T. ) ;
#251 = MANIFOLD_SOLID_BREP ( 'Corps-Déplacer/Copier1[2]', #153 ) ;
#252 = APPROVAL_ROLE ( '' ) ;
#253 = VERTEX_POINT ( 'NONE', #109 ) ;
#255 = CALENDAR_DATE ( 2021, 2, 9 ) ;
#254 = CC_DESIGN_PERSON_AND_ORGANIZATION_ASSIGNMENT ( #183, #61, ( #116 ) ) ;
#256 = CARTESIAN_POINT ( 'NONE',  ( 0.0000000000000000000, 0.0000000000000000000, 0.0000000000000000000 ) ) ;
#257 = LOCAL_TIME ( 15, 22, 40.00000000000000000, #124 ) ;
#258 = EDGE_LOOP ( 'NONE', ( #210, #208 ) ) ;
#259 = DIRECTION ( 'NONE',  ( 0.0000000000000000000, 1.000000000000000000, 0.0000000000000000000 ) ) ;
#260 = APPROVAL ( #309, 'UNSPECIFIED' ) ;
#261 = ORIENTED_EDGE ( 'NONE', *, *, #37, .F. ) ;
#262 = DATE_AND_TIME ( #115, #73 ) ;
#263 = CC_DESIGN_SECURITY_CLASSIFICATION ( #312, ( #116 ) ) ;
#264 = CARTESIAN_POINT ( 'NONE',  ( 5.344789307371138265E-31, 1.249999999999986011, 1.530808498934174314E-16 ) ) ;
#265 = ORIENTED_EDGE ( 'NONE', *, *, #92, .T. ) ;
#266 = CARTESIAN_POINT ( 'NONE',  ( 0.0000000000000000000, 0.0000000000000000000, 0.0000000000000000000 ) ) ;
#267 = FACE_OUTER_BOUND ( 'NONE', #139, .T. ) ;
#268 = DIRECTION ( 'NONE',  ( 1.798245827342160711E-15, -0.8571673007021097801, 0.5150380749100583744 ) ) ;
#269 = DIRECTION ( 'NONE',  ( -3.491481338843133355E-15, 1.224646799147353207E-16, -1.000000000000000000 ) ) ;
#270 = EDGE_CURVE ( 'NONE', #218, #330, #207, .T. ) ;
#271 = DIRECTION ( 'NONE',  ( 3.081487911019616339E-31, 1.000000000000000000, 8.673617379884145173E-17 ) ) ;
#272 = CYLINDRICAL_SURFACE ( 'NONE', #243, 1.249999999999989342 ) ;
#273 = AXIS2_PLACEMENT_3D ( 'NONE', #123, #196, #281 ) ;
#274 = PRODUCT_DEFINITION_SHAPE ( 'NONE', 'NONE',  #209 ) ;
#275 = PERSON ( 'UNSPECIFIED', 'UNSPECIFIED', 'UNSPECIFIED', ('UNSPECIFIED'), ('UNSPECIFIED'), ('UNSPECIFIED') ) ;
#276 = AXIS2_PLACEMENT_3D ( 'NONE', #79, #285, #173 ) ;
#277 = VERTEX_POINT ( 'NONE', #295 ) ;
#278 = MECHANICAL_CONTEXT ( 'NONE', #294, 'mechanical' ) ;
#279 = ADVANCED_FACE ( 'NONE', ( #136 ), #238, .T. ) ;
#280 = ORIENTED_EDGE ( 'NONE', *, *, #179, .T. ) ;
#281 = DIRECTION ( 'NONE',  ( 4.275831445896958607E-31, 1.000000000000000000, 1.224646799147353207E-16 ) ) ;
#282 = PERSON_AND_ORGANIZATION ( #275, #166 ) ;
#283 = EDGE_CURVE ( 'NONE', #249, #218, #155, .T. ) ;
#284 = CARTESIAN_POINT ( 'NONE',  ( 1.047444401652940007E-13, 9.373498641636466361E-33, 30.00000000000000000 ) ) ;
#285 = DIRECTION ( 'NONE',  ( -3.491481338843133355E-15, 1.224646799147353207E-16, -1.000000000000000000 ) ) ;
#286 = VERTEX_POINT ( 'NONE', #313 ) ;
#287 = CARTESIAN_POINT ( 'NONE',  ( 1.979669919124056423E-13, 1.249999999999984235, 56.70000000000000284 ) ) ;
#288 = CC_DESIGN_APPROVAL ( #260, ( #116 ) ) ;
#289 = EDGE_CURVE ( 'NONE', #249, #194, #176, .T. ) ;
#290 = ORIENTED_EDGE ( 'NONE', *, *, #85, .T. ) ;
#291 = CARTESIAN_POINT ( 'NONE',  ( 1.991307777599775757E-13, -0.9499999999999977351, 56.99999999999999289 ) ) ;
#292 = LINE ( 'NONE', #264, #302 ) ;
#293 = CARTESIAN_POINT ( 'NONE',  ( 2.622367048225572360E-15, -9.198025422822477050E-17, 0.7510757737844495630 ) ) ;
#294 = APPLICATION_CONTEXT ( 'configuration controlled 3d designs of mechanical parts and assemblies' ) ;
#295 = CARTESIAN_POINT ( 'NONE',  ( 1.047444401652940007E-13, 1.249999999999984235, 30.00000000000000000 ) ) ;
#296 = CARTESIAN_POINT ( 'NONE',  ( 1.530808498934169137E-16, -1.249999999999986011, -1.530808498934179491E-16 ) ) ;
#297 = APPROVAL ( #87, 'UNSPECIFIED' ) ;
#298 = DIRECTION ( 'NONE',  ( -4.275831445896958607E-31, -1.000000000000000000, -1.224646799147353207E-16 ) ) ;
#299 = FACE_OUTER_BOUND ( 'NONE', #148, .T. ) ;
#300 = SECURITY_CLASSIFICATION_LEVEL ( 'unclassified' ) ;
#301 = CARTESIAN_POINT ( 'NONE',  ( 0.0000000000000000000, 0.0000000000000000000, 0.0000000000000000000 ) ) ;
#302 = VECTOR ( 'NONE', #104, 1000.000000000000000 ) ;
#303 = ORIENTED_EDGE ( 'NONE', *, *, #17, .F. ) ;
#304 = VERTEX_POINT ( 'NONE', #82 ) ;
#305 = EDGE_CURVE ( 'NONE', #194, #330, #184, .T. ) ;
#306 = EDGE_LOOP ( 'NONE', ( #117, #146 ) ) ;
#307 = APPROVAL_PERSON_ORGANIZATION ( #282, #182, #168 ) ;
#308 = APPLICATION_PROTOCOL_DEFINITION ( 'international standard', 'config_control_design', 1994, #294 ) ;
#309 = APPROVAL_STATUS ( 'not_yet_approved' ) ;
#310 = DIRECTION ( 'NONE',  ( -3.491481338843133355E-15, 1.224646799147353207E-16, -1.000000000000000000 ) ) ;
#311 = FACE_OUTER_BOUND ( 'NONE', #306, .T. ) ;
#312 = SECURITY_CLASSIFICATION ( '', '', #300 ) ;
#313 = CARTESIAN_POINT ( 'NONE',  ( 2.622367048225571966E-15, -1.249999999999984235, 0.7510757737844494519 ) ) ;
#314 = ORIENTED_EDGE ( 'NONE', *, *, #223, .T. ) ;
#315 = PERSON_AND_ORGANIZATION_ROLE ( 'design_owner' ) ;
#316 = DIRECTION ( 'NONE',  ( -3.491481338843133355E-15, 1.224646799147353207E-16, -1.000000000000000000 ) ) ;
#317 = EDGE_CURVE ( 'NONE', #330, #277, #171, .T. ) ;
#318 = DIRECTION ( 'NONE',  ( 0.0000000000000000000, 1.000000000000000000, 0.0000000000000000000 ) ) ;
#319 = AXIS2_PLACEMENT_3D ( 'NONE', #284, #334, #93 ) ;
#320 = APPROVAL_PERSON_ORGANIZATION ( #241, #297, #252 ) ;
#321 =( NAMED_UNIT ( * ) PLANE_ANGLE_UNIT ( ) SI_UNIT ( $, .RADIAN. ) );
#322 = PERSON_AND_ORGANIZATION ( #275, #166 ) ;
#323 = CYLINDRICAL_SURFACE ( 'NONE', #226, 1.249999999999986011 ) ;
#324 = DIRECTION ( 'NONE',  ( 4.275831445896958607E-31, 1.000000000000000000, 1.224646799147353207E-16 ) ) ;
#325 = VECTOR ( 'NONE', #30, 1000.000000000000000 ) ;
#326 = DIRECTION ( 'NONE',  ( 4.275831445896958607E-31, 1.000000000000000000, 1.224646799147353207E-16 ) ) ;
#327 = PERSON_AND_ORGANIZATION_ROLE ( 'creator' ) ;
#328 = DIRECTION ( 'NONE',  ( -3.491481338843133355E-15, 1.224646799147353207E-16, -1.000000000000000000 ) ) ;
#329 = CARTESIAN_POINT ( 'NONE',  ( 2.622367048225572360E-15, -9.198025422822477050E-17, 0.7510757737844495630 ) ) ;
#330 = VERTEX_POINT ( 'NONE', #287 ) ;
#331 =( GEOMETRIC_REPRESENTATION_CONTEXT ( 3 ) GLOBAL_UNCERTAINTY_ASSIGNED_CONTEXT ( ( #248 ) ) GLOBAL_UNIT_ASSIGNED_CONTEXT ( ( #21, #321, #132 ) ) REPRESENTATION_CONTEXT ( 'NONE', 'WORKASPACE' ) );
#332 = ORIENTED_EDGE ( 'NONE', *, *, #317, .F. ) ;
#333 = DIRECTION ( 'NONE',  ( 0.0000000000000000000, 0.0000000000000000000, 1.000000000000000000 ) ) ;
#334 = DIRECTION ( 'NONE',  ( 3.491481338843133355E-15, -1.224646799147353207E-16, 1.000000000000000000 ) ) ;
#335 = VERTEX_POINT ( 'NONE', #147 ) ;
#336 = VECTOR ( 'NONE', #268, 1000.000000000000000 ) ;
#337 = DIRECTION ( 'NONE',  ( -2.468850131082241678E-15, 0.7071067811865541231, -0.7071067811865408004 ) ) ;
ENDSEC;
END-ISO-10303-21;
