ISO-10303-21;
HEADER;
FILE_DESCRIPTION (( 'STEP AP203' ),
    '1' );
FILE_NAME ('40939.step',
    '2021-11-25T13:42:32',
    ( '' ),
    ( '' ),
    'SwSTEP 2.0',
    'SolidWorks 2019',
    '' );
FILE_SCHEMA (( 'CONFIG_CONTROL_DESIGN' ));
ENDSEC;

DATA;
#1 = ADVANCED_FACE ( 'NONE', ( #57 ), #163, .T. ) ;
#2 = COORDINATED_UNIVERSAL_TIME_OFFSET ( 1, 0, .AHEAD. ) ;
#3 = APPROVAL_STATUS ( 'not_yet_approved' ) ;
#4 = APPROVAL_ROLE ( '' ) ;
#5 = CLOSED_SHELL ( 'NONE', ( #51, #151, #47, #156 ) ) ;
#6 = CALENDAR_DATE ( 2021, 25, 11 ) ;
#7 = FACE_BOUND ( 'NONE', #108, .T. ) ;
#8 = EDGE_LOOP ( 'NONE', ( #42 ) ) ;
#9 = DIRECTION ( 'NONE',  ( -3.491481338843133355E-15, 1.224646799147353207E-16, -1.000000000000000000 ) ) ;
#10 = AXIS2_PLACEMENT_3D ( 'NONE', #83, #9, #109 ) ;
#11 = CARTESIAN_POINT ( 'NONE',  ( 8.768763455204726259E-15, -3.075668192302265872E-16, 2.511473670974901040 ) ) ;
#12 = AXIS2_PLACEMENT_3D ( 'NONE', #27, #85, #69 ) ;
#13 = APPROVAL ( #174, 'UNSPECIFIED' ) ;
#14 = CARTESIAN_POINT ( 'NONE',  ( 0.0000000000000000000, 0.0000000000000000000, 0.0000000000000000000 ) ) ;
#15 = CARTESIAN_POINT ( 'NONE',  ( 8.768763455204726259E-15, 1.499999999999995559, 2.511473670974901040 ) ) ;
#16 = CLOSED_SHELL ( 'NONE', ( #44, #18, #1 ) ) ;
#17 = CARTESIAN_POINT ( 'NONE',  ( 8.768763455204726259E-15, -3.075668192302265872E-16, 2.511473670974901040 ) ) ;
#18 = ADVANCED_FACE ( 'NONE', ( #110, #125 ), #65, .T. ) ;
#19 = DIRECTION ( 'NONE',  ( 0.0000000000000000000, 0.0000000000000000000, 1.000000000000000000 ) ) ;
#20 = DATE_TIME_ROLE ( 'creation_date' ) ;
#21 = DATE_AND_TIME ( #34, #74 ) ;
#22 = DIRECTION ( 'NONE',  ( 0.0000000000000000000, 1.000000000000000000, 0.0000000000000000000 ) ) ;
#23 = EDGE_LOOP ( 'NONE', ( #141 ) ) ;
#24 = CC_DESIGN_APPROVAL ( #126, ( #133 ) ) ;
#25 = CARTESIAN_POINT ( 'NONE',  ( 8.768763455204724681E-15, -7.261187227229707330E-16, 2.511473670974901040 ) ) ;
#26 = DIRECTION ( 'NONE',  ( 3.491481338843133355E-15, -1.224646799147353207E-16, 1.000000000000000000 ) ) ;
#27 = CARTESIAN_POINT ( 'NONE',  ( 8.768763455204726259E-15, -3.075668192302265872E-16, 2.511473670974901040 ) ) ;
#28 = CARTESIAN_POINT ( 'NONE',  ( -2.137915722948467042E-32, 7.498798913309245275E-34, -6.123233995736730907E-18 ) ) ;
#29 = CC_DESIGN_APPROVAL ( #13, ( #171 ) ) ;
#30 = AXIS2_PLACEMENT_3D ( 'NONE', #189, #19, #49 ) ;
#31 = VERTEX_POINT ( 'NONE', #201 ) ;
#32 = EDGE_CURVE ( 'NONE', #62, #62, #48, .T. ) ;
#33 =( NAMED_UNIT ( * ) SI_UNIT ( $, .STERADIAN. ) SOLID_ANGLE_UNIT ( ) );
#34 = CALENDAR_DATE ( 2021, 25, 11 ) ;
#35 = COORDINATED_UNIVERSAL_TIME_OFFSET ( 1, 0, .AHEAD. ) ;
#36 = PRODUCT_DEFINITION ( 'UNKNOWN', '', #171, #187 ) ;
#37 = PERSON_AND_ORGANIZATION ( #197, #153 ) ;
#38 = APPLICATION_PROTOCOL_DEFINITION ( 'international standard', 'config_control_design', 1994, #96 ) ;
#39 = ORIENTED_EDGE ( 'NONE', *, *, #161, .F. ) ;
#40 = FACE_OUTER_BOUND ( 'NONE', #92, .T. ) ;
#41 = AXIS2_PLACEMENT_3D ( 'NONE', #14, #203, #173 ) ;
#42 = ORIENTED_EDGE ( 'NONE', *, *, #136, .T. ) ;
#43 = DIRECTION ( 'NONE',  ( -4.275831445896958607E-31, -1.000000000000000000, -1.224646799147353207E-16 ) ) ;
#44 = ADVANCED_FACE ( 'NONE', ( #56 ), #165, .F. ) ;
#45 = DIRECTION ( 'NONE',  ( 0.0000000000000000000, 1.000000000000000000, 0.0000000000000000000 ) ) ;
#46 = LOCAL_TIME ( 14, 42, 32.00000000000000000, #89 ) ;
#47 = ADVANCED_FACE ( 'NONE', ( #40, #7 ), #144, .T. ) ;
#48 = CIRCLE ( 'NONE', #61, 1.499999999999998446 ) ;
#49 = DIRECTION ( 'NONE',  ( 1.000000000000000000, 0.0000000000000000000, 0.0000000000000000000 ) ) ;
#50 = COORDINATED_UNIVERSAL_TIME_OFFSET ( 1, 0, .AHEAD. ) ;
#51 = ADVANCED_FACE ( 'NONE', ( #164 ), #72, .F. ) ;
#52 = PERSON_AND_ORGANIZATION ( #197, #153 ) ;
#53 = DATE_AND_TIME ( #104, #54 ) ;
#54 = LOCAL_TIME ( 14, 42, 32.00000000000000000, #50 ) ;
#55 = EDGE_LOOP ( 'NONE', ( #140 ) ) ;
#56 = FACE_OUTER_BOUND ( 'NONE', #131, .T. ) ;
#57 = FACE_OUTER_BOUND ( 'NONE', #95, .T. ) ;
#58 = LOCAL_TIME ( 14, 42, 32.00000000000000000, #2 ) ;
#59 = CARTESIAN_POINT ( 'NONE',  ( 0.0000000000000000000, 0.04999999999999971134, 0.0000000000000000000 ) ) ;
#60 = CARTESIAN_POINT ( 'NONE',  ( 8.768763455204724681E-15, -7.261187227229707330E-16, 2.511473670974901040 ) ) ;
#61 = AXIS2_PLACEMENT_3D ( 'NONE', #162, #70, #22 ) ;
#62 = VERTEX_POINT ( 'NONE', #147 ) ;
#63 = CARTESIAN_POINT ( 'NONE',  ( 1.326762908760390423E-13, 8.998558695971067645E-33, 38.00000000000000000 ) ) ;
#64 = DATE_AND_TIME ( #6, #58 ) ;
#65 = CONICAL_SURFACE ( 'NONE', #188, 1.499999999999995781, 0.5235987755982925984 ) ;
#66 = COORDINATED_UNIVERSAL_TIME_OFFSET ( 1, 0, .AHEAD. ) ;
#67 = APPLICATION_PROTOCOL_DEFINITION ( 'international standard', 'config_control_design', 1994, #149 ) ;
#68 = APPROVAL_ROLE ( '' ) ;
#69 = DIRECTION ( 'NONE',  ( 0.0000000000000000000, 1.000000000000000000, 0.0000000000000000000 ) ) ;
#70 = DIRECTION ( 'NONE',  ( -3.491481338843133355E-15, 1.224646799147353207E-16, -1.000000000000000000 ) ) ;
#71 = FACE_OUTER_BOUND ( 'NONE', #81, .T. ) ;
#72 = PLANE ( 'NONE',  #194 ) ;
#73 = VERTEX_POINT ( 'NONE', #59 ) ;
#74 = LOCAL_TIME ( 14, 42, 32.00000000000000000, #66 ) ;
#75 = APPROVAL_STATUS ( 'not_yet_approved' ) ;
#76 = PERSON_AND_ORGANIZATION ( #197, #153 ) ;
#77 = APPROVAL_DATE_TIME ( #21, #126 ) ;
#78 = MANIFOLD_SOLID_BREP ( 'Corps-Déplacer/Copier1[1]', #5 ) ;
#79 = CARTESIAN_POINT ( 'NONE',  ( -1.068957861474233521E-32, 3.749399456654622637E-34, -3.061616997868365453E-18 ) ) ;
#80 = DIRECTION ( 'NONE',  ( 3.491481338843133355E-15, -1.224646799147353207E-16, 1.000000000000000000 ) ) ;
#81 = EDGE_LOOP ( 'NONE', ( #196 ) ) ;
#82 = APPROVAL ( #75, 'UNSPECIFIED' ) ;
#83 = CARTESIAN_POINT ( 'NONE',  ( 1.326762908760390423E-13, -4.653657836759941941E-15, 38.00000000000000000 ) ) ;
#84 = VERTEX_POINT ( 'NONE', #150 ) ;
#85 = DIRECTION ( 'NONE',  ( -3.491481338843133355E-15, 1.224646799147353207E-16, -1.000000000000000000 ) ) ;
#86 = CIRCLE ( 'NONE', #159, 1.499999999999995781 ) ;
#87 = CC_DESIGN_DATE_AND_TIME_ASSIGNMENT ( #64, #20, ( #36 ) ) ;
#88 = CALENDAR_DATE ( 2021, 25, 11 ) ;
#89 = COORDINATED_UNIVERSAL_TIME_OFFSET ( 1, 0, .AHEAD. ) ;
#90 = CC_DESIGN_APPROVAL ( #82, ( #36 ) ) ;
#91 = DATE_AND_TIME ( #134, #46 ) ;
#92 = EDGE_LOOP ( 'NONE', ( #143 ) ) ;
#93 = PERSON_AND_ORGANIZATION ( #197, #153 ) ;
#94 = UNCERTAINTY_MEASURE_WITH_UNIT (LENGTH_MEASURE( 1.000000000000000082E-05 ), #119, 'distance_accuracy_value', 'NONE');
#95 = EDGE_LOOP ( 'NONE', ( #39 ) ) ;
#96 = APPLICATION_CONTEXT ( 'configuration controlled 3d designs of mechanical parts and assemblies' ) ;
#97 = ORIENTED_EDGE ( 'NONE', *, *, #115, .T. ) ;
#98 = DIRECTION ( 'NONE',  ( -3.491481338843133355E-15, 1.224646799147353207E-16, -1.000000000000000000 ) ) ;
#99 = DIRECTION ( 'NONE',  ( -3.491481338843133355E-15, 1.224646799147353207E-16, -1.000000000000000000 ) ) ;
#100 = PRODUCT_RELATED_PRODUCT_CATEGORY ( 'detail', '', ( #117 ) ) ;
#101 = DIRECTION ( 'NONE',  ( -3.491481338843133355E-15, 1.224646799147353207E-16, -1.000000000000000000 ) ) ;
#102 = AXIS2_PLACEMENT_3D ( 'NONE', #79, #26, #43 ) ;
#103 =( NAMED_UNIT ( * ) PLANE_ANGLE_UNIT ( ) SI_UNIT ( $, .RADIAN. ) );
#104 = CALENDAR_DATE ( 2021, 25, 11 ) ;
#105 = PERSON_AND_ORGANIZATION ( #197, #153 ) ;
#106 = APPROVAL_ROLE ( '' ) ;
#107 = APPROVAL_PERSON_ORGANIZATION ( #175, #13, #68 ) ;
#108 = EDGE_LOOP ( 'NONE', ( #97 ) ) ;
#109 = DIRECTION ( 'NONE',  ( 0.0000000000000000000, 1.000000000000000000, 0.0000000000000000000 ) ) ;
#110 = FACE_BOUND ( 'NONE', #178, .T. ) ;
#111 =( GEOMETRIC_REPRESENTATION_CONTEXT ( 3 ) GLOBAL_UNCERTAINTY_ASSIGNED_CONTEXT ( ( #94 ) ) GLOBAL_UNIT_ASSIGNED_CONTEXT ( ( #119, #103, #33 ) ) REPRESENTATION_CONTEXT ( 'NONE', 'WORKASPACE' ) );
#112 = CC_DESIGN_PERSON_AND_ORGANIZATION_ASSIGNMENT ( #37, #176, ( #117 ) ) ;
#113 = DIRECTION ( 'NONE',  ( 3.491481338843133355E-15, -1.224646799147353207E-16, 1.000000000000000000 ) ) ;
#114 = AXIS2_PLACEMENT_3D ( 'NONE', #60, #128, #181 ) ;
#115 = EDGE_CURVE ( 'NONE', #31, #31, #118, .T. ) ;
#116 = FACE_OUTER_BOUND ( 'NONE', #55, .T. ) ;
#117 = PRODUCT ( '40939', '40939', '', ( #158 ) ) ;
#118 = CIRCLE ( 'NONE', #185, 1.199999999999998623 ) ;
#119 =( LENGTH_UNIT ( ) NAMED_UNIT ( * ) SI_UNIT ( .MILLI., .METRE. ) );
#120 = PERSON_AND_ORGANIZATION_ROLE ( 'classification_officer' ) ;
#121 = CIRCLE ( 'NONE', #148, 0.04999999999999971134 ) ;
#122 = PERSON_AND_ORGANIZATION ( #197, #153 ) ;
#123 = SHAPE_DEFINITION_REPRESENTATION ( #172, #155 ) ;
#124 = DATE_AND_TIME ( #88, #199 ) ;
#125 = FACE_OUTER_BOUND ( 'NONE', #23, .T. ) ;
#126 = APPROVAL ( #3, 'UNSPECIFIED' ) ;
#127 = ORIENTED_EDGE ( 'NONE', *, *, #190, .T. ) ;
#128 = DIRECTION ( 'NONE',  ( 3.491481338843133355E-15, -1.224646799147353207E-16, 1.000000000000000000 ) ) ;
#129 = CIRCLE ( 'NONE', #12, 1.499999999999995781 ) ;
#130 = DIRECTION ( 'NONE',  ( 4.275831445896958607E-31, 1.000000000000000000, 1.224646799147353207E-16 ) ) ;
#131 = EDGE_LOOP ( 'NONE', ( #127 ) ) ;
#132 = PLANE ( 'NONE',  #137 ) ;
#133 = SECURITY_CLASSIFICATION ( '', '', #135 ) ;
#134 = CALENDAR_DATE ( 2021, 25, 11 ) ;
#135 = SECURITY_CLASSIFICATION_LEVEL ( 'unclassified' ) ;
#136 = EDGE_CURVE ( 'NONE', #84, #84, #129, .T. ) ;
#137 = AXIS2_PLACEMENT_3D ( 'NONE', #63, #101, #170 ) ;
#138 = DATE_TIME_ROLE ( 'classification_date' ) ;
#139 = DIRECTION ( 'NONE',  ( -4.275831445896958607E-31, -1.000000000000000000, -1.224646799147353207E-16 ) ) ;
#140 = ORIENTED_EDGE ( 'NONE', *, *, #115, .F. ) ;
#141 = ORIENTED_EDGE ( 'NONE', *, *, #161, .T. ) ;
#142 = DIRECTION ( 'NONE',  ( -3.491481338843133355E-15, 1.224646799147353207E-16, -1.000000000000000000 ) ) ;
#143 = ORIENTED_EDGE ( 'NONE', *, *, #32, .F. ) ;
#144 = CONICAL_SURFACE ( 'NONE', #10, 1.199999999999998623, 0.7853981633974453924 ) ;
#145 = CC_DESIGN_DATE_AND_TIME_ASSIGNMENT ( #53, #138, ( #133 ) ) ;
#146 = MANIFOLD_SOLID_BREP ( 'Corps-Déplacer/Copier1[2]', #16 ) ;
#147 = CARTESIAN_POINT ( 'NONE',  ( 1.316288464743861212E-13, 1.499999999999994005, 37.69999999999999574 ) ) ;
#148 = AXIS2_PLACEMENT_3D ( 'NONE', #28, #99, #130 ) ;
#149 = APPLICATION_CONTEXT ( 'configuration controlled 3d designs of mechanical parts and assemblies' ) ;
#150 = CARTESIAN_POINT ( 'NONE',  ( 8.768763455204726259E-15, 1.499999999999995559, 2.511473670974901040 ) ) ;
#151 = ADVANCED_FACE ( 'NONE', ( #184, #71 ), #152, .T. ) ;
#152 = CYLINDRICAL_SURFACE ( 'NONE', #41, 1.499999999999996891 ) ;
#153 = ORGANIZATION ( 'UNSPECIFIED', 'UNSPECIFIED', '' ) ;
#154 = PERSON_AND_ORGANIZATION_ROLE ( 'creator' ) ;
#155 = ADVANCED_BREP_SHAPE_REPRESENTATION ( '40939', ( #78, #146, #30 ), #111 ) ;
#156 = ADVANCED_FACE ( 'NONE', ( #116 ), #132, .F. ) ;
#157 = PERSON_AND_ORGANIZATION ( #197, #153 ) ;
#158 = MECHANICAL_CONTEXT ( 'NONE', #149, 'mechanical' ) ;
#159 = AXIS2_PLACEMENT_3D ( 'NONE', #17, #142, #45 ) ;
#160 = PERSON_AND_ORGANIZATION_ROLE ( 'creator' ) ;
#161 = EDGE_CURVE ( 'NONE', #183, #183, #86, .T. ) ;
#162 = CARTESIAN_POINT ( 'NONE',  ( 1.316288464743861212E-13, -4.616918432785521081E-15, 37.69999999999999574 ) ) ;
#163 = PLANE ( 'NONE',  #114 ) ;
#164 = FACE_OUTER_BOUND ( 'NONE', #8, .T. ) ;
#165 = PLANE ( 'NONE',  #102 ) ;
#166 = CC_DESIGN_PERSON_AND_ORGANIZATION_ASSIGNMENT ( #122, #160, ( #36 ) ) ;
#167 = DIRECTION ( 'NONE',  ( 0.0000000000000000000, 1.000000000000000000, 0.0000000000000000000 ) ) ;
#168 = APPROVAL_PERSON_ORGANIZATION ( #105, #126, #4 ) ;
#169 = CC_DESIGN_PERSON_AND_ORGANIZATION_ASSIGNMENT ( #93, #120, ( #133 ) ) ;
#170 = DIRECTION ( 'NONE',  ( 4.275831445896958607E-31, 1.000000000000000000, 1.224646799147353207E-16 ) ) ;
#171 = PRODUCT_DEFINITION_FORMATION_WITH_SPECIFIED_SOURCE ( 'ANY', '', #117, .NOT_KNOWN. ) ;
#172 = PRODUCT_DEFINITION_SHAPE ( 'NONE', 'NONE',  #36 ) ;
#173 = DIRECTION ( 'NONE',  ( 4.275831445896958607E-31, 1.000000000000000000, 1.224646799147353454E-16 ) ) ;
#174 = APPROVAL_STATUS ( 'not_yet_approved' ) ;
#175 = PERSON_AND_ORGANIZATION ( #197, #153 ) ;
#176 = PERSON_AND_ORGANIZATION_ROLE ( 'design_owner' ) ;
#177 = ORIENTED_EDGE ( 'NONE', *, *, #136, .F. ) ;
#178 = EDGE_LOOP ( 'NONE', ( #198 ) ) ;
#179 = CC_DESIGN_PERSON_AND_ORGANIZATION_ASSIGNMENT ( #76, #154, ( #171 ) ) ;
#180 = APPROVAL_PERSON_ORGANIZATION ( #157, #82, #106 ) ;
#181 = DIRECTION ( 'NONE',  ( -4.275831445896958607E-31, -1.000000000000000000, -1.224646799147353207E-16 ) ) ;
#182 = CARTESIAN_POINT ( 'NONE',  ( 1.326762908760390423E-13, -4.653657836759941941E-15, 38.00000000000000000 ) ) ;
#183 = VERTEX_POINT ( 'NONE', #15 ) ;
#184 = FACE_OUTER_BOUND ( 'NONE', #195, .T. ) ;
#185 = AXIS2_PLACEMENT_3D ( 'NONE', #182, #98, #167 ) ;
#186 = APPROVAL_DATE_TIME ( #124, #13 ) ;
#187 = DESIGN_CONTEXT ( 'detailed design', #96, 'design' ) ;
#188 = AXIS2_PLACEMENT_3D ( 'NONE', #11, #80, #200 ) ;
#189 = CARTESIAN_POINT ( 'NONE',  ( 0.0000000000000000000, 0.0000000000000000000, 0.0000000000000000000 ) ) ;
#190 = EDGE_CURVE ( 'NONE', #73, #73, #121, .T. ) ;
#191 = APPROVAL_DATE_TIME ( #91, #82 ) ;
#192 = PERSON_AND_ORGANIZATION_ROLE ( 'design_supplier' ) ;
#193 = CC_DESIGN_SECURITY_CLASSIFICATION ( #133, ( #171 ) ) ;
#194 = AXIS2_PLACEMENT_3D ( 'NONE', #25, #113, #139 ) ;
#195 = EDGE_LOOP ( 'NONE', ( #177 ) ) ;
#196 = ORIENTED_EDGE ( 'NONE', *, *, #32, .T. ) ;
#197 = PERSON ( 'UNSPECIFIED', 'UNSPECIFIED', 'UNSPECIFIED', ('UNSPECIFIED'), ('UNSPECIFIED'), ('UNSPECIFIED') ) ;
#198 = ORIENTED_EDGE ( 'NONE', *, *, #190, .F. ) ;
#199 = LOCAL_TIME ( 14, 42, 32.00000000000000000, #35 ) ;
#200 = DIRECTION ( 'NONE',  ( 0.0000000000000000000, -1.000000000000000000, 0.0000000000000000000 ) ) ;
#201 = CARTESIAN_POINT ( 'NONE',  ( 1.326762908760390423E-13, 1.199999999999993960, 38.00000000000000000 ) ) ;
#202 = CC_DESIGN_PERSON_AND_ORGANIZATION_ASSIGNMENT ( #52, #192, ( #171 ) ) ;
#203 = DIRECTION ( 'NONE',  ( -3.491481338843133355E-15, 1.224646799147353207E-16, -1.000000000000000000 ) ) ;
ENDSEC;
END-ISO-10303-21;
