ISO-10303-21;
HEADER;
FILE_DESCRIPTION (( 'STEP AP203' ),
    '1' );
FILE_NAME ('40912.step',
    '2021-09-02T13:22:38',
    ( '' ),
    ( '' ),
    'SwSTEP 2.0',
    'SolidWorks 2019',
    '' );
FILE_SCHEMA (( 'CONFIG_CONTROL_DESIGN' ));
ENDSEC;

DATA;
#1 = ORIENTED_EDGE ( 'NONE', *, *, #45, .T. ) ;
#2 = ORIENTED_EDGE ( 'NONE', *, *, #202, .F. ) ;
#3 = LOCAL_TIME ( 15, 22, 38.00000000000000000, #62 ) ;
#4 = CC_DESIGN_PERSON_AND_ORGANIZATION_ASSIGNMENT ( #10, #294, ( #242 ) ) ;
#5 = FACE_OUTER_BOUND ( 'NONE', #102, .T. ) ;
#6 = CYLINDRICAL_SURFACE ( 'NONE', #92, 3.749999999999986677 ) ;
#7 = DATE_AND_TIME ( #337, #163 ) ;
#8 = ORIENTED_EDGE ( 'NONE', *, *, #51, .T. ) ;
#9 = LINE ( 'NONE', #129, #114 ) ;
#10 = PERSON_AND_ORGANIZATION ( #185, #101 ) ;
#11 = APPROVAL_STATUS ( 'not_yet_approved' ) ;
#12 = CONICAL_SURFACE ( 'NONE', #187, 3.749999999999983125, 1.029744258676649649 ) ;
#13 = CARTESIAN_POINT ( 'NONE',  ( 3.805714659339015231E-13, -1.334865011070615008E-14, 109.0000000000000000 ) ) ;
#14 = EDGE_CURVE ( 'NONE', #63, #98, #183, .T. ) ;
#15 = APPROVAL_ROLE ( '' ) ;
#16 = DIRECTION ( 'NONE',  ( -3.491481338843133355E-15, 1.224646799147353207E-16, -1.000000000000000000 ) ) ;
#17 = CALENDAR_DATE ( 2021, 2, 9 ) ;
#18 = DESIGN_CONTEXT ( 'detailed design', #296, 'design' ) ;
#19 = DIRECTION ( 'NONE',  ( 3.491481338843133355E-15, -1.224646799147353207E-16, 1.000000000000000000 ) ) ;
#20 = CC_DESIGN_PERSON_AND_ORGANIZATION_ASSIGNMENT ( #127, #135, ( #242 ) ) ;
#21 = FACE_OUTER_BOUND ( 'NONE', #286, .T. ) ;
#22 = AXIS2_PLACEMENT_3D ( 'NONE', #13, #64, #89 ) ;
#23 = CC_DESIGN_PERSON_AND_ORGANIZATION_ASSIGNMENT ( #58, #238, ( #90 ) ) ;
#24 = DIRECTION ( 'NONE',  ( 0.0000000000000000000, 1.000000000000000000, 0.0000000000000000000 ) ) ;
#25 = CARTESIAN_POINT ( 'NONE',  ( 0.0000000000000000000, 0.0000000000000000000, 0.0000000000000000000 ) ) ;
#26 = VECTOR ( 'NONE', #269, 1000.000000000000000 ) ;
#27 = LOCAL_TIME ( 15, 22, 38.00000000000000000, #86 ) ;
#28 = VERTEX_POINT ( 'NONE', #49 ) ;
#29 = DIRECTION ( 'NONE',  ( -3.491481338843133355E-15, 1.224646799147353207E-16, -1.000000000000000000 ) ) ;
#30 = APPROVAL_STATUS ( 'not_yet_approved' ) ;
#31 = VERTEX_POINT ( 'NONE', #303 ) ;
#32 = ADVANCED_FACE ( 'NONE', ( #124 ), #6, .T. ) ;
#33 = CARTESIAN_POINT ( 'NONE',  ( 8.326343694357034629E-15, 3.749999999999982681, 2.253227321353366452 ) ) ;
#34 = DIRECTION ( 'NONE',  ( -3.491481338843133355E-15, 1.224646799147353207E-16, -1.000000000000000000 ) ) ;
#35 = PERSON_AND_ORGANIZATION ( #185, #101 ) ;
#36 = CLOSED_SHELL ( 'NONE', ( #331, #66, #210, #32, #111 ) ) ;
#37 = DIRECTION ( 'NONE',  ( 0.0000000000000000000, 1.000000000000000000, 0.0000000000000000000 ) ) ;
#38 = CALENDAR_DATE ( 2021, 2, 9 ) ;
#39 =( LENGTH_UNIT ( ) NAMED_UNIT ( * ) SI_UNIT ( .MILLI., .METRE. ) );
#40 = EDGE_CURVE ( 'NONE', #83, #31, #72, .T. ) ;
#41 = DIRECTION ( 'NONE',  ( 1.000000000000000000, 0.0000000000000000000, 0.0000000000000000000 ) ) ;
#42 = AXIS2_PLACEMENT_3D ( 'NONE', #120, #248, #193 ) ;
#43 = DATE_AND_TIME ( #318, #80 ) ;
#44 = DIRECTION ( 'NONE',  ( 4.275831445896958607E-31, 1.000000000000000000, 1.224646799147353207E-16 ) ) ;
#45 = EDGE_CURVE ( 'NONE', #145, #176, #76, .T. ) ;
#46 = LINE ( 'NONE', #322, #26 ) ;
#47 = APPROVAL_PERSON_ORGANIZATION ( #35, #272, #275 ) ;
#48 = LINE ( 'NONE', #118, #241 ) ;
#49 = CARTESIAN_POINT ( 'NONE',  ( 3.098044891711818279E-13, -3.749999999999999112, 69.00000000000000000 ) ) ;
#50 = ORIENTED_EDGE ( 'NONE', *, *, #51, .F. ) ;
#51 = EDGE_CURVE ( 'NONE', #126, #28, #252, .T. ) ;
#52 = DIRECTION ( 'NONE',  ( 0.0000000000000000000, 1.000000000000000000, 0.0000000000000000000 ) ) ;
#53 = CIRCLE ( 'NONE', #326, 3.749999999999990674 ) ;
#54 = CARTESIAN_POINT ( 'NONE',  ( 2.409122123801762394E-13, 2.812049592490963583E-32, 69.00000000000000000 ) ) ;
#55 = ORIENTED_EDGE ( 'NONE', *, *, #179, .T. ) ;
#56 = EDGE_LOOP ( 'NONE', ( #285, #206 ) ) ;
#57 = DIRECTION ( 'NONE',  ( 0.0000000000000000000, 1.000000000000000000, 0.0000000000000000000 ) ) ;
#58 = PERSON_AND_ORGANIZATION ( #185, #101 ) ;
#59 = ORIENTED_EDGE ( 'NONE', *, *, #147, .F. ) ;
#60 = PRODUCT_DEFINITION_SHAPE ( 'NONE', 'NONE',  #90 ) ;
#61 = DIRECTION ( 'NONE',  ( 4.275831445896958607E-31, 1.000000000000000000, 1.224646799147353207E-16 ) ) ;
#62 = COORDINATED_UNIVERSAL_TIME_OFFSET ( 1, 0, .AHEAD. ) ;
#63 = VERTEX_POINT ( 'NONE', #121 ) ;
#64 = DIRECTION ( 'NONE',  ( -3.491481338843133355E-15, 1.224646799147353207E-16, -1.000000000000000000 ) ) ;
#65 = SECURITY_CLASSIFICATION ( '', '', #240 ) ;
#66 = ADVANCED_FACE ( 'NONE', ( #190 ), #79, .T. ) ;
#67 = DIRECTION ( 'NONE',  ( -3.491481338843133355E-15, 1.224646799147353207E-16, -1.000000000000000000 ) ) ;
#68 = AXIS2_PLACEMENT_3D ( 'NONE', #270, #67, #44 ) ;
#69 = EDGE_CURVE ( 'NONE', #31, #255, #237, .T. ) ;
#70 = DIRECTION ( 'NONE',  ( 0.0000000000000000000, 1.000000000000000000, 0.0000000000000000000 ) ) ;
#71 = CARTESIAN_POINT ( 'NONE',  ( 2.409122123801762394E-13, -8.450062914116737844E-15, 69.00000000000000000 ) ) ;
#72 = LINE ( 'NONE', #250, #156 ) ;
#73 = APPROVAL_DATE_TIME ( #7, #272 ) ;
#74 = DIRECTION ( 'NONE',  ( -4.275831445896958607E-31, -1.000000000000000000, -1.224646799147353207E-16 ) ) ;
#75 = ORIENTED_EDGE ( 'NONE', *, *, #264, .T. ) ;
#76 = LINE ( 'NONE', #219, #191 ) ;
#77 = EDGE_LOOP ( 'NONE', ( #103, #75 ) ) ;
#78 = DIRECTION ( 'NONE',  ( -3.491481338843133355E-15, 1.224646799147353207E-16, -1.000000000000000000 ) ) ;
#79 = CONICAL_SURFACE ( 'NONE', #212, 3.749999999999983125, 1.029744258676649649 ) ;
#80 = LOCAL_TIME ( 15, 22, 38.00000000000000000, #158 ) ;
#81 = CARTESIAN_POINT ( 'NONE',  ( 3.805714659339015231E-13, -1.334865011070615008E-14, 109.0000000000000000 ) ) ;
#82 = CARTESIAN_POINT ( 'NONE',  ( 2.409122123801762394E-13, 3.749999999999982681, 69.00000000000000000 ) ) ;
#83 = VERTEX_POINT ( 'NONE', #25 ) ;
#84 = PERSON_AND_ORGANIZATION ( #185, #101 ) ;
#85 = ADVANCED_FACE ( 'NONE', ( #199 ), #151, .T. ) ;
#86 = COORDINATED_UNIVERSAL_TIME_OFFSET ( 1, 0, .AHEAD. ) ;
#87 = CARTESIAN_POINT ( 'NONE',  ( 0.0000000000000000000, 0.0000000000000000000, 0.0000000000000000000 ) ) ;
#88 = EDGE_CURVE ( 'NONE', #176, #28, #246, .T. ) ;
#89 = DIRECTION ( 'NONE',  ( 0.0000000000000000000, 1.000000000000000000, 0.0000000000000000000 ) ) ;
#90 = PRODUCT_DEFINITION ( 'UNKNOWN', '', #242, #18 ) ;
#91 = DATE_TIME_ROLE ( 'creation_date' ) ;
#92 = AXIS2_PLACEMENT_3D ( 'NONE', #194, #309, #139 ) ;
#93 = DIRECTION ( 'NONE',  ( 0.0000000000000000000, 1.000000000000000000, 0.0000000000000000000 ) ) ;
#94 = CYLINDRICAL_SURFACE ( 'NONE', #333, 3.749999999999993339 ) ;
#95 = EDGE_LOOP ( 'NONE', ( #168, #278, #312, #2 ) ) ;
#96 = EDGE_CURVE ( 'NONE', #83, #255, #48, .T. ) ;
#97 = ORIENTED_EDGE ( 'NONE', *, *, #295, .F. ) ;
#98 = VERTEX_POINT ( 'NONE', #140 ) ;
#99 = CARTESIAN_POINT ( 'NONE',  ( 3.805714659339015231E-13, -1.334865011070615008E-14, 109.0000000000000000 ) ) ;
#100 = AXIS2_PLACEMENT_3D ( 'NONE', #170, #284, #52 ) ;
#101 = ORGANIZATION ( 'UNSPECIFIED', 'UNSPECIFIED', '' ) ;
#102 = EDGE_LOOP ( 'NONE', ( #308, #106 ) ) ;
#103 = ORIENTED_EDGE ( 'NONE', *, *, #88, .T. ) ;
#104 = ADVANCED_FACE ( 'NONE', ( #227 ), #94, .T. ) ;
#105 = DIRECTION ( 'NONE',  ( -3.491481338843133355E-15, 1.224646799147353207E-16, -1.000000000000000000 ) ) ;
#106 = ORIENTED_EDGE ( 'NONE', *, *, #301, .F. ) ;
#107 = PERSON_AND_ORGANIZATION ( #185, #101 ) ;
#108 = CIRCLE ( 'NONE', #133, 3.749999999999996003 ) ;
#109 = DIRECTION ( 'NONE',  ( -3.491481338843133355E-15, 1.224646799147353207E-16, -1.000000000000000000 ) ) ;
#110 = CC_DESIGN_DATE_AND_TIME_ASSIGNMENT ( #235, #91, ( #90 ) ) ;
#111 = ADVANCED_FACE ( 'NONE', ( #332 ), #192, .T. ) ;
#112 = CARTESIAN_POINT ( 'NONE',  ( 2.409122123801762394E-13, 3.749999999999982681, 69.00000000000000000 ) ) ;
#113 = CARTESIAN_POINT ( 'NONE',  ( 1.248488993121065398E-13, -3.749999999999998668, 69.00000000000000000 ) ) ;
#114 = VECTOR ( 'NONE', #236, 1000.000000000000000 ) ;
#115 = AXIS2_PLACEMENT_3D ( 'NONE', #87, #16, #205 ) ;
#116 = DIRECTION ( 'NONE',  ( 4.108650548026121837E-31, 1.000000000000000000, 1.156482317317876655E-16 ) ) ;
#117 = APPROVAL ( #178, 'UNSPECIFIED' ) ;
#118 = CARTESIAN_POINT ( 'NONE',  ( 8.326343694357034629E-15, 3.749999999999982681, 2.253227321353366452 ) ) ;
#119 = CONICAL_SURFACE ( 'NONE', #316, 2.949999999999995737, 0.7853981633974428389 ) ;
#120 = CARTESIAN_POINT ( 'NONE',  ( 2.409122123801762394E-13, 2.812049592490963583E-32, 69.00000000000000000 ) ) ;
#121 = CARTESIAN_POINT ( 'NONE',  ( 3.805714659339015231E-13, 2.949999999999981970, 109.0000000000000000 ) ) ;
#122 = EDGE_LOOP ( 'NONE', ( #233, #8, #223, #334 ) ) ;
#123 = DIRECTION ( 'NONE',  ( 3.491481338843133355E-15, -1.224646799147353207E-16, 1.000000000000000000 ) ) ;
#124 = FACE_OUTER_BOUND ( 'NONE', #230, .T. ) ;
#125 = APPROVAL_PERSON_ORGANIZATION ( #84, #117, #154 ) ;
#126 = VERTEX_POINT ( 'NONE', #166 ) ;
#127 = PERSON_AND_ORGANIZATION ( #185, #101 ) ;
#128 = ORIENTED_EDGE ( 'NONE', *, *, #69, .T. ) ;
#129 = CARTESIAN_POINT ( 'NONE',  ( 4.592425496802543404E-16, -3.749999999999986677, -4.592425496802573972E-16 ) ) ;
#130 = COORDINATED_UNIVERSAL_TIME_OFFSET ( 1, 0, .AHEAD. ) ;
#131 = CARTESIAN_POINT ( 'NONE',  ( 2.409122123801762394E-13, -8.450062914116737844E-15, 69.00000000000000000 ) ) ;
#132 = APPROVAL_DATE_TIME ( #43, #117 ) ;
#133 = AXIS2_PLACEMENT_3D ( 'NONE', #245, #213, #324 ) ;
#134 = CC_DESIGN_PERSON_AND_ORGANIZATION_ASSIGNMENT ( #107, #207, ( #177 ) ) ;
#135 = PERSON_AND_ORGANIZATION_ROLE ( 'design_supplier' ) ;
#136 = UNCERTAINTY_MEASURE_WITH_UNIT (LENGTH_MEASURE( 1.000000000000000082E-05 ), #39, 'distance_accuracy_value', 'NONE');
#137 = CIRCLE ( 'NONE', #22, 2.949999999999995737 ) ;
#138 = FACE_OUTER_BOUND ( 'NONE', #77, .T. ) ;
#139 = DIRECTION ( 'NONE',  ( 4.275831445896958607E-31, 1.000000000000000000, 1.224646799147353207E-16 ) ) ;
#140 = CARTESIAN_POINT ( 'NONE',  ( 3.795851300760786615E-13, -2.950000000000009059, 109.0000000000000000 ) ) ;
#141 = ORIENTED_EDGE ( 'NONE', *, *, #69, .F. ) ;
#142 = AXIS2_PLACEMENT_3D ( 'NONE', #81, #305, #24 ) ;
#143 = DIRECTION ( 'NONE',  ( 1.903218546456022717E-15, 0.8571673007021097801, 0.5150380749100585964 ) ) ;
#144 = DIRECTION ( 'NONE',  ( 3.491481338843133355E-15, -1.224646799147353207E-16, 1.000000000000000000 ) ) ;
#145 = VERTEX_POINT ( 'NONE', #276 ) ;
#146 = CARTESIAN_POINT ( 'NONE',  ( 7.867101144676777824E-15, -2.759407626846764439E-16, 2.253227321353366452 ) ) ;
#147 = EDGE_CURVE ( 'NONE', #63, #145, #162, .T. ) ;
#148 = PRODUCT_RELATED_PRODUCT_CATEGORY ( 'detail', '', ( #177 ) ) ;
#149 = EDGE_LOOP ( 'NONE', ( #229, #55, #335, #59 ) ) ;
#150 = DIRECTION ( 'NONE',  ( 0.0000000000000000000, 0.0000000000000000000, 1.000000000000000000 ) ) ;
#151 = CONICAL_SURFACE ( 'NONE', #142, 2.949999999999995737, 0.7853981633974428389 ) ;
#152 = VERTEX_POINT ( 'NONE', #113 ) ;
#153 = ADVANCED_FACE ( 'NONE', ( #188 ), #119, .T. ) ;
#154 = APPROVAL_ROLE ( '' ) ;
#155 = EDGE_CURVE ( 'NONE', #255, #31, #267, .T. ) ;
#156 = VECTOR ( 'NONE', #277, 1000.000000000000000 ) ;
#157 = LOCAL_TIME ( 15, 22, 38.00000000000000000, #130 ) ;
#158 = COORDINATED_UNIVERSAL_TIME_OFFSET ( 1, 0, .AHEAD. ) ;
#159 = DIRECTION ( 'NONE',  ( -3.491481338843133355E-15, 1.224646799147353207E-16, -1.000000000000000000 ) ) ;
#160 = AXIS2_PLACEMENT_3D ( 'NONE', #214, #300, #116 ) ;
#161 = AXIS2_PLACEMENT_3D ( 'NONE', #182, #109, #37 ) ;
#162 = LINE ( 'NONE', #184, #251 ) ;
#163 = LOCAL_TIME ( 15, 22, 38.00000000000000000, #225 ) ;
#164 = ORIENTED_EDGE ( 'NONE', *, *, #280, .F. ) ;
#165 = SHAPE_DEFINITION_REPRESENTATION ( #60, #266 ) ;
#166 = CARTESIAN_POINT ( 'NONE',  ( 3.098044891711817269E-13, -3.750000000000009326, 108.1999999999999886 ) ) ;
#167 = ORIENTED_EDGE ( 'NONE', *, *, #264, .F. ) ;
#168 = ORIENTED_EDGE ( 'NONE', *, *, #179, .F. ) ;
#169 = DIRECTION ( 'NONE',  ( -4.108650548026121837E-31, -1.000000000000000000, -1.156482317317876655E-16 ) ) ;
#170 = CARTESIAN_POINT ( 'NONE',  ( 2.409122123801762394E-13, -8.450062914116737844E-15, 69.00000000000000000 ) ) ;
#171 = ORIENTED_EDGE ( 'NONE', *, *, #215, .T. ) ;
#172 = APPLICATION_PROTOCOL_DEFINITION ( 'international standard', 'config_control_design', 1994, #271 ) ;
#173 = AXIS2_PLACEMENT_3D ( 'NONE', #54, #144, #74 ) ;
#174 = CC_DESIGN_APPROVAL ( #272, ( #65 ) ) ;
#175 = PERSON_AND_ORGANIZATION_ROLE ( 'classification_officer' ) ;
#176 = VERTEX_POINT ( 'NONE', #112 ) ;
#177 = PRODUCT ( '40912', '40912', '', ( #260 ) ) ;
#178 = APPROVAL_STATUS ( 'not_yet_approved' ) ;
#179 = EDGE_CURVE ( 'NONE', #98, #126, #46, .T. ) ;
#180 = PLANE ( 'NONE',  #268 ) ;
#181 = APPROVAL_DATE_TIME ( #209, #319 ) ;
#182 = CARTESIAN_POINT ( 'NONE',  ( 3.777782808628269659E-13, -1.325067836677436007E-14, 108.1999999999999886 ) ) ;
#183 = CIRCLE ( 'NONE', #279, 2.949999999999995737 ) ;
#184 = CARTESIAN_POINT ( 'NONE',  ( 3.805714659339015231E-13, 2.949999999999981970, 109.0000000000000000 ) ) ;
#185 = PERSON ( 'UNSPECIFIED', 'UNSPECIFIED', 'UNSPECIFIED', ('UNSPECIFIED'), ('UNSPECIFIED'), ('UNSPECIFIED') ) ;
#186 = ADVANCED_FACE ( 'NONE', ( #243 ), #298, .T. ) ;
#187 = AXIS2_PLACEMENT_3D ( 'NONE', #330, #19, #189 ) ;
#188 = FACE_OUTER_BOUND ( 'NONE', #149, .T. ) ;
#189 = DIRECTION ( 'NONE',  ( -4.108650548026121837E-31, -1.000000000000000000, -1.156482317317876655E-16 ) ) ;
#190 = FACE_OUTER_BOUND ( 'NONE', #283, .T. ) ;
#191 = VECTOR ( 'NONE', #29, 1000.000000000000000 ) ;
#192 = PLANE ( 'NONE',  #173 ) ;
#193 = DIRECTION ( 'NONE',  ( -4.275831445896958607E-31, -1.000000000000000000, -1.224646799147353207E-16 ) ) ;
#194 = CARTESIAN_POINT ( 'NONE',  ( 0.0000000000000000000, 0.0000000000000000000, 0.0000000000000000000 ) ) ;
#195 = DIRECTION ( 'NONE',  ( -3.491481338843133355E-15, 1.224646799147353207E-16, -1.000000000000000000 ) ) ;
#196 = EDGE_LOOP ( 'NONE', ( #50, #222, #1, #167 ) ) ;
#197 = PLANE ( 'NONE',  #42 ) ;
#198 = CC_DESIGN_APPROVAL ( #319, ( #242 ) ) ;
#199 = FACE_OUTER_BOUND ( 'NONE', #95, .T. ) ;
#200 = DATE_TIME_ROLE ( 'classification_date' ) ;
#201 = ORIENTED_EDGE ( 'NONE', *, *, #280, .T. ) ;
#202 = EDGE_CURVE ( 'NONE', #126, #145, #108, .T. ) ;
#203 = CYLINDRICAL_SURFACE ( 'NONE', #115, 3.749999999999986677 ) ;
#204 = EDGE_LOOP ( 'NONE', ( #315, #201, #253, #97 ) ) ;
#205 = DIRECTION ( 'NONE',  ( 4.275831445896958607E-31, 1.000000000000000000, 1.224646799147353207E-16 ) ) ;
#206 = ORIENTED_EDGE ( 'NONE', *, *, #215, .F. ) ;
#207 = PERSON_AND_ORGANIZATION_ROLE ( 'design_owner' ) ;
#208 = CARTESIAN_POINT ( 'NONE',  ( 3.805714659339015231E-13, 2.212145679426216708E-32, 109.0000000000000000 ) ) ;
#209 = DATE_AND_TIME ( #38, #27 ) ;
#210 = ADVANCED_FACE ( 'NONE', ( #21 ), #12, .T. ) ;
#211 = CARTESIAN_POINT ( 'NONE',  ( 3.805714659339015231E-13, -1.334865011070615008E-14, 109.0000000000000000 ) ) ;
#212 = AXIS2_PLACEMENT_3D ( 'NONE', #146, #123, #169 ) ;
#213 = DIRECTION ( 'NONE',  ( -3.491481338843133355E-15, 1.224646799147353207E-16, -1.000000000000000000 ) ) ;
#214 = CARTESIAN_POINT ( 'NONE',  ( 7.867101144676777824E-15, -2.759407626846764439E-16, 2.253227321353366452 ) ) ;
#215 = EDGE_CURVE ( 'NONE', #152, #256, #53, .T. ) ;
#216 = CIRCLE ( 'NONE', #265, 3.749999999999990674 ) ;
#217 = AXIS2_PLACEMENT_3D ( 'NONE', #263, #321, #57 ) ;
#218 = DATE_AND_TIME ( #244, #3 ) ;
#219 = CARTESIAN_POINT ( 'NONE',  ( 1.603436792211356719E-30, 3.749999999999993339, 4.592425496802566084E-16 ) ) ;
#220 = AXIS2_PLACEMENT_3D ( 'NONE', #274, #224, #306 ) ;
#221 = CIRCLE ( 'NONE', #161, 3.749999999999996003 ) ;
#222 = ORIENTED_EDGE ( 'NONE', *, *, #202, .T. ) ;
#223 = ORIENTED_EDGE ( 'NONE', *, *, #88, .F. ) ;
#224 = DIRECTION ( 'NONE',  ( -3.491481338843133355E-15, 1.224646799147353207E-16, -1.000000000000000000 ) ) ;
#225 = COORDINATED_UNIVERSAL_TIME_OFFSET ( 1, 0, .AHEAD. ) ;
#226 = CC_DESIGN_PERSON_AND_ORGANIZATION_ASSIGNMENT ( #232, #175, ( #65 ) ) ;
#227 = FACE_OUTER_BOUND ( 'NONE', #122, .T. ) ;
#228 = DIRECTION ( 'NONE',  ( -3.491481338843133355E-15, 1.224646799147353207E-16, -1.000000000000000000 ) ) ;
#229 = ORIENTED_EDGE ( 'NONE', *, *, #14, .T. ) ;
#230 = EDGE_LOOP ( 'NONE', ( #164, #171, #313, #141 ) ) ;
#231 = CARTESIAN_POINT ( 'NONE',  ( 0.0000000000000000000, 0.0000000000000000000, 0.0000000000000000000 ) ) ;
#232 = PERSON_AND_ORGANIZATION ( #185, #101 ) ;
#233 = ORIENTED_EDGE ( 'NONE', *, *, #314, .T. ) ;
#234 =( NAMED_UNIT ( * ) PLANE_ANGLE_UNIT ( ) SI_UNIT ( $, .RADIAN. ) );
#235 = DATE_AND_TIME ( #17, #157 ) ;
#236 = DIRECTION ( 'NONE',  ( -3.491481338843133355E-15, 1.224646799147353207E-16, -1.000000000000000000 ) ) ;
#237 = CIRCLE ( 'NONE', #220, 3.749999999999983125 ) ;
#238 = PERSON_AND_ORGANIZATION_ROLE ( 'creator' ) ;
#239 = CARTESIAN_POINT ( 'NONE',  ( 1.603436792211353916E-30, 3.749999999999986677, 4.592425496802558195E-16 ) ) ;
#240 = SECURITY_CLASSIFICATION_LEVEL ( 'unclassified' ) ;
#241 = VECTOR ( 'NONE', #143, 999.9999999999998863 ) ;
#242 = PRODUCT_DEFINITION_FORMATION_WITH_SPECIFIED_SOURCE ( 'ANY', '', #177, .NOT_KNOWN. ) ;
#243 = FACE_OUTER_BOUND ( 'NONE', #196, .T. ) ;
#244 = CALENDAR_DATE ( 2021, 2, 9 ) ;
#245 = CARTESIAN_POINT ( 'NONE',  ( 3.777782808628269659E-13, -1.325067836677436007E-14, 108.1999999999999886 ) ) ;
#246 = CIRCLE ( 'NONE', #100, 3.749999999999990674 ) ;
#247 =( GEOMETRIC_REPRESENTATION_CONTEXT ( 3 ) GLOBAL_UNCERTAINTY_ASSIGNED_CONTEXT ( ( #136 ) ) GLOBAL_UNIT_ASSIGNED_CONTEXT ( ( #39, #234, #257 ) ) REPRESENTATION_CONTEXT ( 'NONE', 'WORKASPACE' ) );
#248 = DIRECTION ( 'NONE',  ( 3.491481338843133355E-15, -1.224646799147353207E-16, 1.000000000000000000 ) ) ;
#249 = ORIENTED_EDGE ( 'NONE', *, *, #96, .F. ) ;
#250 = CARTESIAN_POINT ( 'NONE',  ( 7.867101144676777824E-15, -3.749999999999983569, 2.253227321353366008 ) ) ;
#251 = VECTOR ( 'NONE', #299, 1000.000000000000000 ) ;
#252 = LINE ( 'NONE', #311, #304 ) ;
#253 = ORIENTED_EDGE ( 'NONE', *, *, #155, .F. ) ;
#254 = ADVANCED_FACE ( 'NONE', ( #138 ), #197, .F. ) ;
#255 = VERTEX_POINT ( 'NONE', #33 ) ;
#256 = VERTEX_POINT ( 'NONE', #82 ) ;
#257 =( NAMED_UNIT ( * ) SI_UNIT ( $, .STERADIAN. ) SOLID_ANGLE_UNIT ( ) );
#258 = DIRECTION ( 'NONE',  ( 0.0000000000000000000, 1.000000000000000000, 0.0000000000000000000 ) ) ;
#259 = ORIENTED_EDGE ( 'NONE', *, *, #155, .T. ) ;
#260 = MECHANICAL_CONTEXT ( 'NONE', #271, 'mechanical' ) ;
#261 = VECTOR ( 'NONE', #228, 1000.000000000000000 ) ;
#262 = ORIENTED_EDGE ( 'NONE', *, *, #96, .T. ) ;
#263 = CARTESIAN_POINT ( 'NONE',  ( 2.409122123801762394E-13, -8.450062914116737844E-15, 69.00000000000000000 ) ) ;
#264 = EDGE_CURVE ( 'NONE', #28, #176, #216, .T. ) ;
#265 = AXIS2_PLACEMENT_3D ( 'NONE', #131, #288, #293 ) ;
#266 = ADVANCED_BREP_SHAPE_REPRESENTATION ( '40912', ( #325, #328, #323 ), #247 ) ;
#267 = CIRCLE ( 'NONE', #160, 3.749999999999983125 ) ;
#268 = AXIS2_PLACEMENT_3D ( 'NONE', #208, #105, #61 ) ;
#269 = DIRECTION ( 'NONE',  ( -2.382254525458730486E-15, -0.7071067811865435759, -0.7071067811865515695 ) ) ;
#270 = CARTESIAN_POINT ( 'NONE',  ( 0.0000000000000000000, 0.0000000000000000000, 0.0000000000000000000 ) ) ;
#271 = APPLICATION_CONTEXT ( 'configuration controlled 3d designs of mechanical parts and assemblies' ) ;
#272 = APPROVAL ( #30, 'UNSPECIFIED' ) ;
#273 = CIRCLE ( 'NONE', #217, 3.749999999999990674 ) ;
#274 = CARTESIAN_POINT ( 'NONE',  ( 7.867101144676777824E-15, -2.759407626846764439E-16, 2.253227321353366452 ) ) ;
#275 = APPROVAL_ROLE ( '' ) ;
#276 = CARTESIAN_POINT ( 'NONE',  ( 3.777782808628269659E-13, 3.749999999999982681, 108.1999999999999886 ) ) ;
#277 = DIRECTION ( 'NONE',  ( 1.798245827342160317E-15, -0.8571673007021098911, 0.5150380749100582634 ) ) ;
#278 = ORIENTED_EDGE ( 'NONE', *, *, #301, .T. ) ;
#279 = AXIS2_PLACEMENT_3D ( 'NONE', #99, #34, #258 ) ;
#280 = EDGE_CURVE ( 'NONE', #152, #31, #9, .T. ) ;
#281 = DIRECTION ( 'NONE',  ( -3.491481338843133355E-15, 1.224646799147353207E-16, -1.000000000000000000 ) ) ;
#282 = DIRECTION ( 'NONE',  ( 4.275831445896958607E-31, 1.000000000000000000, 1.224646799147353207E-16 ) ) ;
#283 = EDGE_LOOP ( 'NONE', ( #310, #262, #259 ) ) ;
#284 = DIRECTION ( 'NONE',  ( -3.491481338843133355E-15, 1.224646799147353207E-16, -1.000000000000000000 ) ) ;
#285 = ORIENTED_EDGE ( 'NONE', *, *, #302, .F. ) ;
#286 = EDGE_LOOP ( 'NONE', ( #249, #291, #128 ) ) ;
#287 = CLOSED_SHELL ( 'NONE', ( #153, #104, #254, #186, #85, #307 ) ) ;
#288 = DIRECTION ( 'NONE',  ( -3.491481338843133355E-15, 1.224646799147353207E-16, -1.000000000000000000 ) ) ;
#289 = APPROVAL_PERSON_ORGANIZATION ( #290, #319, #15 ) ;
#290 = PERSON_AND_ORGANIZATION ( #185, #101 ) ;
#291 = ORIENTED_EDGE ( 'NONE', *, *, #40, .T. ) ;
#292 = LINE ( 'NONE', #239, #261 ) ;
#293 = DIRECTION ( 'NONE',  ( 0.0000000000000000000, 1.000000000000000000, 0.0000000000000000000 ) ) ;
#294 = PERSON_AND_ORGANIZATION_ROLE ( 'creator' ) ;
#295 = EDGE_CURVE ( 'NONE', #256, #255, #292, .T. ) ;
#296 = APPLICATION_CONTEXT ( 'configuration controlled 3d designs of mechanical parts and assemblies' ) ;
#297 = CC_DESIGN_APPROVAL ( #117, ( #90 ) ) ;
#298 = CYLINDRICAL_SURFACE ( 'NONE', #68, 3.749999999999993339 ) ;
#299 = DIRECTION ( 'NONE',  ( -2.468850131082278754E-15, 0.7071067811865437980, -0.7071067811865513475 ) ) ;
#300 = DIRECTION ( 'NONE',  ( -3.491481338843133355E-15, 1.224646799147353207E-16, -1.000000000000000000 ) ) ;
#301 = EDGE_CURVE ( 'NONE', #98, #63, #137, .T. ) ;
#302 = EDGE_CURVE ( 'NONE', #256, #152, #273, .T. ) ;
#303 = CARTESIAN_POINT ( 'NONE',  ( 7.867101144676777824E-15, -3.749999999999983569, 2.253227321353366008 ) ) ;
#304 = VECTOR ( 'NONE', #195, 1000.000000000000000 ) ;
#305 = DIRECTION ( 'NONE',  ( -3.491481338843133355E-15, 1.224646799147353207E-16, -1.000000000000000000 ) ) ;
#306 = DIRECTION ( 'NONE',  ( 4.108650548026121837E-31, 1.000000000000000000, 1.156482317317876655E-16 ) ) ;
#307 = ADVANCED_FACE ( 'NONE', ( #5 ), #180, .F. ) ;
#308 = ORIENTED_EDGE ( 'NONE', *, *, #14, .F. ) ;
#309 = DIRECTION ( 'NONE',  ( -3.491481338843133355E-15, 1.224646799147353207E-16, -1.000000000000000000 ) ) ;
#310 = ORIENTED_EDGE ( 'NONE', *, *, #40, .F. ) ;
#311 = CARTESIAN_POINT ( 'NONE',  ( 4.592425496802551292E-16, -3.749999999999993339, -4.592425496802581861E-16 ) ) ;
#312 = ORIENTED_EDGE ( 'NONE', *, *, #147, .T. ) ;
#313 = ORIENTED_EDGE ( 'NONE', *, *, #295, .T. ) ;
#314 = EDGE_CURVE ( 'NONE', #145, #126, #221, .T. ) ;
#315 = ORIENTED_EDGE ( 'NONE', *, *, #302, .T. ) ;
#316 = AXIS2_PLACEMENT_3D ( 'NONE', #211, #159, #70 ) ;
#317 = APPLICATION_PROTOCOL_DEFINITION ( 'international standard', 'config_control_design', 1994, #296 ) ;
#318 = CALENDAR_DATE ( 2021, 2, 9 ) ;
#319 = APPROVAL ( #11, 'UNSPECIFIED' ) ;
#320 = FACE_OUTER_BOUND ( 'NONE', #204, .T. ) ;
#321 = DIRECTION ( 'NONE',  ( -3.491481338843133355E-15, 1.224646799147353207E-16, -1.000000000000000000 ) ) ;
#322 = CARTESIAN_POINT ( 'NONE',  ( 3.809327367396500057E-13, -2.950000000000009059, 109.0000000000000000 ) ) ;
#323 = AXIS2_PLACEMENT_3D ( 'NONE', #231, #150, #41 ) ;
#324 = DIRECTION ( 'NONE',  ( 0.0000000000000000000, 1.000000000000000000, 0.0000000000000000000 ) ) ;
#325 = MANIFOLD_SOLID_BREP ( 'Corps-Déplacer/Copier1[1]', #287 ) ;
#326 = AXIS2_PLACEMENT_3D ( 'NONE', #71, #281, #93 ) ;
#327 = CC_DESIGN_SECURITY_CLASSIFICATION ( #65, ( #242 ) ) ;
#328 = MANIFOLD_SOLID_BREP ( 'Corps-Déplacer/Copier1[2]', #36 ) ;
#329 = CC_DESIGN_DATE_AND_TIME_ASSIGNMENT ( #218, #200, ( #65 ) ) ;
#330 = CARTESIAN_POINT ( 'NONE',  ( 7.867101144676777824E-15, -2.759407626846764439E-16, 2.253227321353366452 ) ) ;
#331 = ADVANCED_FACE ( 'NONE', ( #320 ), #203, .T. ) ;
#332 = FACE_OUTER_BOUND ( 'NONE', #56, .T. ) ;
#333 = AXIS2_PLACEMENT_3D ( 'NONE', #336, #78, #282 ) ;
#334 = ORIENTED_EDGE ( 'NONE', *, *, #45, .F. ) ;
#335 = ORIENTED_EDGE ( 'NONE', *, *, #314, .F. ) ;
#336 = CARTESIAN_POINT ( 'NONE',  ( 0.0000000000000000000, 0.0000000000000000000, 0.0000000000000000000 ) ) ;
#337 = CALENDAR_DATE ( 2021, 2, 9 ) ;
ENDSEC;
END-ISO-10303-21;
