ISO-10303-21;
HEADER;
FILE_DESCRIPTION (( 'STEP AP203' ),
    '1' );
FILE_NAME ('40910.step',
    '2021-10-07T13:47:58',
    ( '' ),
    ( '' ),
    'SwSTEP 2.0',
    'SolidWorks 2019',
    '' );
FILE_SCHEMA (( 'CONFIG_CONTROL_DESIGN' ));
ENDSEC;

DATA;
#1 = APPLICATION_CONTEXT ( 'configuration controlled 3d designs of mechanical parts and assemblies' ) ;
#2 = APPROVAL ( #57, 'UNSPECIFIED' ) ;
#3 = APPROVAL_PERSON_ORGANIZATION ( #14, #2, #209 ) ;
#4 = CC_DESIGN_PERSON_AND_ORGANIZATION_ASSIGNMENT ( #36, #37, ( #9 ) ) ;
#5 = ORIENTED_EDGE ( 'NONE', *, *, #60, .F. ) ;
#6 = ORIENTED_EDGE ( 'NONE', *, *, #82, .T. ) ;
#7 = FACE_OUTER_BOUND ( 'NONE', #138, .T. ) ;
#8 = CIRCLE ( 'NONE', #134, 0.8149999999999969491 ) ;
#9 = PRODUCT ( '40910', '40910', '', ( #126 ) ) ;
#10 = EDGE_LOOP ( 'NONE', ( #152 ) ) ;
#11 = EDGE_LOOP ( 'NONE', ( #5 ) ) ;
#12 = DATE_AND_TIME ( #170, #106 ) ;
#13 = CIRCLE ( 'NONE', #221, 1.000000000000000888 ) ;
#14 = PERSON_AND_ORGANIZATION ( #100, #86 ) ;
#15 = FACE_OUTER_BOUND ( 'NONE', #42, .T. ) ;
#16 = VERTEX_POINT ( 'NONE', #31 ) ;
#17 = LOCAL_TIME ( 15, 47, 58.00000000000000000, #158 ) ;
#18 = PERSON_AND_ORGANIZATION_ROLE ( 'classification_officer' ) ;
#19 = CALENDAR_DATE ( 2021, 7, 10 ) ;
#20 = ADVANCED_FACE ( 'NONE', ( #149, #119 ), #204, .T. ) ;
#21 = AXIS2_PLACEMENT_3D ( 'NONE', #184, #156, #127 ) ;
#22 = DIRECTION ( 'NONE',  ( 3.491481338843133355E-15, -1.224646799147353207E-16, 1.000000000000000000 ) ) ;
#23 = DIRECTION ( 'NONE',  ( 0.0000000000000000000, -1.000000000000000000, 0.0000000000000000000 ) ) ;
#24 = CARTESIAN_POINT ( 'NONE',  ( 1.326762908760390423E-13, -4.653657836759941941E-15, 38.00000000000000000 ) ) ;
#25 = ORIENTED_EDGE ( 'NONE', *, *, #133, .T. ) ;
#26 =( GEOMETRIC_REPRESENTATION_CONTEXT ( 3 ) GLOBAL_UNCERTAINTY_ASSIGNED_CONTEXT ( ( #69 ) ) GLOBAL_UNIT_ASSIGNED_CONTEXT ( ( #223, #70, #222 ) ) REPRESENTATION_CONTEXT ( 'NONE', 'WORKASPACE' ) );
#27 = EDGE_LOOP ( 'NONE', ( #200 ) ) ;
#28 = CC_DESIGN_DATE_AND_TIME_ASSIGNMENT ( #54, #128, ( #163 ) ) ;
#29 = CC_DESIGN_DATE_AND_TIME_ASSIGNMENT ( #55, #144, ( #53 ) ) ;
#30 = AXIS2_PLACEMENT_3D ( 'NONE', #48, #58, #124 ) ;
#31 = CARTESIAN_POINT ( 'NONE',  ( 1.709783315443082208E-15, 0.8149999999999940625, 0.4897014045074636890 ) ) ;
#32 = DATE_AND_TIME ( #19, #17 ) ;
#33 = CC_DESIGN_APPROVAL ( #2, ( #110 ) ) ;
#34 = PERSON_AND_ORGANIZATION ( #100, #86 ) ;
#35 = CALENDAR_DATE ( 2021, 7, 10 ) ;
#36 = PERSON_AND_ORGANIZATION ( #100, #86 ) ;
#37 = PERSON_AND_ORGANIZATION_ROLE ( 'design_owner' ) ;
#38 = DIRECTION ( 'NONE',  ( 3.491481338843133355E-15, -1.224646799147353207E-16, 1.000000000000000000 ) ) ;
#39 = MANIFOLD_SOLID_BREP ( 'Corps-Déplacer/Copier1[2]', #68 ) ;
#40 = CC_DESIGN_SECURITY_CLASSIFICATION ( #163, ( #110 ) ) ;
#41 = PERSON_AND_ORGANIZATION_ROLE ( 'creator' ) ;
#42 = EDGE_LOOP ( 'NONE', ( #181 ) ) ;
#43 = DIRECTION ( 'NONE',  ( 4.275831445896958607E-31, 1.000000000000000000, 1.224646799147353207E-16 ) ) ;
#44 = EDGE_CURVE ( 'NONE', #89, #89, #47, .T. ) ;
#45 = DIRECTION ( 'NONE',  ( -3.491481338843133355E-15, 1.224646799147353207E-16, -1.000000000000000000 ) ) ;
#46 = CYLINDRICAL_SURFACE ( 'NONE', #175, 0.8149999999999956168 ) ;
#47 = CIRCLE ( 'NONE', #94, 0.8000000000000011546 ) ;
#48 = CARTESIAN_POINT ( 'NONE',  ( 4.189777606611760026E-14, 6.111521114347024730E-33, 12.00000000000000000 ) ) ;
#49 = CC_DESIGN_PERSON_AND_ORGANIZATION_ASSIGNMENT ( #205, #142, ( #53 ) ) ;
#50 = AXIS2_PLACEMENT_3D ( 'NONE', #64, #109, #220 ) ;
#51 = VERTEX_POINT ( 'NONE', #143 ) ;
#52 = DIRECTION ( 'NONE',  ( 1.000000000000000000, 0.0000000000000000000, 0.0000000000000000000 ) ) ;
#53 = PRODUCT_DEFINITION ( 'UNKNOWN', '', #110, #83 ) ;
#54 = DATE_AND_TIME ( #208, #81 ) ;
#55 = DATE_AND_TIME ( #35, #73 ) ;
#56 = DATE_AND_TIME ( #155, #190 ) ;
#57 = APPROVAL_STATUS ( 'not_yet_approved' ) ;
#58 = DIRECTION ( 'NONE',  ( 3.491481338843133355E-15, -1.224646799147353207E-16, 1.000000000000000000 ) ) ;
#59 = DIRECTION ( 'NONE',  ( -3.491481338843133355E-15, 1.224646799147353207E-16, -1.000000000000000000 ) ) ;
#60 = EDGE_CURVE ( 'NONE', #16, #16, #192, .T. ) ;
#61 = DIRECTION ( 'NONE',  ( -3.491481338843133355E-15, 1.224646799147353207E-16, -1.000000000000000000 ) ) ;
#62 = DIRECTION ( 'NONE',  ( 0.0000000000000000000, 1.000000000000000000, 0.0000000000000000000 ) ) ;
#63 = SHAPE_DEFINITION_REPRESENTATION ( #147, #199 ) ;
#64 = CARTESIAN_POINT ( 'NONE',  ( 4.189777606611760026E-14, -1.469576158976823947E-15, 12.00000000000000000 ) ) ;
#65 = DIRECTION ( 'NONE',  ( 0.0000000000000000000, 1.000000000000000000, 0.0000000000000000000 ) ) ;
#66 = SECURITY_CLASSIFICATION_LEVEL ( 'unclassified' ) ;
#67 = APPROVAL_DATE_TIME ( #32, #174 ) ;
#68 = CLOSED_SHELL ( 'NONE', ( #186, #166, #113 ) ) ;
#69 = UNCERTAINTY_MEASURE_WITH_UNIT (LENGTH_MEASURE( 1.000000000000000082E-05 ), #223, 'distance_accuracy_value', 'NONE');
#70 =( NAMED_UNIT ( * ) PLANE_ANGLE_UNIT ( ) SI_UNIT ( $, .RADIAN. ) );
#71 = VERTEX_POINT ( 'NONE', #173 ) ;
#72 = VERTEX_POINT ( 'NONE', #129 ) ;
#73 = LOCAL_TIME ( 15, 47, 58.00000000000000000, #88 ) ;
#74 = CC_DESIGN_PERSON_AND_ORGANIZATION_ASSIGNMENT ( #191, #41, ( #110 ) ) ;
#75 = FACE_OUTER_BOUND ( 'NONE', #96, .T. ) ;
#76 = ORIENTED_EDGE ( 'NONE', *, *, #162, .F. ) ;
#77 = EDGE_LOOP ( 'NONE', ( #76 ) ) ;
#78 = CARTESIAN_POINT ( 'NONE',  ( 4.301654933454028317E-14, -1.508817442809646442E-15, 12.32042939940025050 ) ) ;
#79 = DIRECTION ( 'NONE',  ( -3.491481338843133355E-15, 1.224646799147353207E-16, -1.000000000000000000 ) ) ;
#80 = ORIENTED_EDGE ( 'NONE', *, *, #44, .F. ) ;
#81 = LOCAL_TIME ( 15, 47, 58.00000000000000000, #87 ) ;
#82 = EDGE_CURVE ( 'NONE', #85, #85, #202, .T. ) ;
#83 = DESIGN_CONTEXT ( 'detailed design', #111, 'design' ) ;
#84 = ADVANCED_FACE ( 'NONE', ( #75 ), #120, .F. ) ;
#85 = VERTEX_POINT ( 'NONE', #157 ) ;
#86 = ORGANIZATION ( 'UNSPECIFIED', 'UNSPECIFIED', '' ) ;
#87 = COORDINATED_UNIVERSAL_TIME_OFFSET ( 1, 0, .AHEAD. ) ;
#88 = COORDINATED_UNIVERSAL_TIME_OFFSET ( 1, 0, .AHEAD. ) ;
#89 = VERTEX_POINT ( 'NONE', #108 ) ;
#90 = APPLICATION_PROTOCOL_DEFINITION ( 'international standard', 'config_control_design', 1994, #1 ) ;
#91 = AXIS2_PLACEMENT_3D ( 'NONE', #193, #38, #115 ) ;
#92 = APPROVAL_ROLE ( '' ) ;
#93 = ADVANCED_FACE ( 'NONE', ( #211 ), #203, .F. ) ;
#94 = AXIS2_PLACEMENT_3D ( 'NONE', #97, #45, #65 ) ;
#95 = CONICAL_SURFACE ( 'NONE', #153, 0.8000000000000011546, 0.7853981633974507215 ) ;
#96 = EDGE_LOOP ( 'NONE', ( #80 ) ) ;
#97 = CARTESIAN_POINT ( 'NONE',  ( 1.326762908760390423E-13, -4.653657836759941941E-15, 38.00000000000000000 ) ) ;
#98 = DIRECTION ( 'NONE',  ( -3.491481338843133355E-15, 1.224646799147353207E-16, -1.000000000000000000 ) ) ;
#99 = AXIS2_PLACEMENT_3D ( 'NONE', #140, #136, #43 ) ;
#100 = PERSON ( 'UNSPECIFIED', 'UNSPECIFIED', 'UNSPECIFIED', ('UNSPECIFIED'), ('UNSPECIFIED'), ('UNSPECIFIED') ) ;
#101 = CARTESIAN_POINT ( 'NONE',  ( 1.709783315443081814E-15, -5.997112575680285363E-17, 0.4897014045074635780 ) ) ;
#102 = DIRECTION ( 'NONE',  ( 0.0000000000000000000, 1.000000000000000000, 0.0000000000000000000 ) ) ;
#103 = EDGE_LOOP ( 'NONE', ( #25 ) ) ;
#104 = APPROVAL ( #145, 'UNSPECIFIED' ) ;
#105 = FACE_OUTER_BOUND ( 'NONE', #77, .T. ) ;
#106 = LOCAL_TIME ( 15, 47, 58.00000000000000000, #183 ) ;
#107 = ADVANCED_FACE ( 'NONE', ( #15, #219 ), #207, .T. ) ;
#108 = CARTESIAN_POINT ( 'NONE',  ( 1.326762908760390423E-13, 0.7999999999999964917, 38.00000000000000000 ) ) ;
#109 = DIRECTION ( 'NONE',  ( -3.491481338843133355E-15, 1.224646799147353207E-16, -1.000000000000000000 ) ) ;
#110 = PRODUCT_DEFINITION_FORMATION_WITH_SPECIFIED_SOURCE ( 'ANY', '', #9, .NOT_KNOWN. ) ;
#111 = APPLICATION_CONTEXT ( 'configuration controlled 3d designs of mechanical parts and assemblies' ) ;
#112 = CC_DESIGN_APPROVAL ( #104, ( #163 ) ) ;
#113 = ADVANCED_FACE ( 'NONE', ( #105 ), #169, .T. ) ;
#114 = PRODUCT_RELATED_PRODUCT_CATEGORY ( 'detail', '', ( #9 ) ) ;
#115 = DIRECTION ( 'NONE',  ( -4.275831445896958607E-31, -1.000000000000000000, -1.224646799147353207E-16 ) ) ;
#116 = DIRECTION ( 'NONE',  ( -3.491481338843133355E-15, 1.224646799147353207E-16, -1.000000000000000000 ) ) ;
#117 = APPROVAL_PERSON_ORGANIZATION ( #34, #104, #92 ) ;
#118 = ORIENTED_EDGE ( 'NONE', *, *, #60, .T. ) ;
#119 = FACE_OUTER_BOUND ( 'NONE', #182, .T. ) ;
#120 = PLANE ( 'NONE',  #99 ) ;
#121 = DIRECTION ( 'NONE',  ( 4.275831445896958607E-31, 1.000000000000000000, 1.224646799147353207E-16 ) ) ;
#122 = APPROVAL_PERSON_ORGANIZATION ( #146, #174, #161 ) ;
#123 = ADVANCED_FACE ( 'NONE', ( #131, #210 ), #95, .T. ) ;
#124 = DIRECTION ( 'NONE',  ( -4.275831445896958607E-31, -1.000000000000000000, -1.224646799147353207E-16 ) ) ;
#125 = PERSON_AND_ORGANIZATION_ROLE ( 'design_supplier' ) ;
#126 = MECHANICAL_CONTEXT ( 'NONE', #1, 'mechanical' ) ;
#127 = DIRECTION ( 'NONE',  ( 4.275831445896957731E-31, 1.000000000000000000, 1.224646799147353207E-16 ) ) ;
#128 = DATE_TIME_ROLE ( 'classification_date' ) ;
#129 = CARTESIAN_POINT ( 'NONE',  ( 1.319779946082704535E-13, 0.9999999999999963363, 37.79999999999999716 ) ) ;
#130 = APPROVAL_DATE_TIME ( #56, #2 ) ;
#131 = FACE_OUTER_BOUND ( 'NONE', #137, .T. ) ;
#132 = COORDINATED_UNIVERSAL_TIME_OFFSET ( 1, 0, .AHEAD. ) ;
#133 = EDGE_CURVE ( 'NONE', #72, #72, #13, .T. ) ;
#134 = AXIS2_PLACEMENT_3D ( 'NONE', #179, #61, #102 ) ;
#135 = AXIS2_PLACEMENT_3D ( 'NONE', #198, #214, #62 ) ;
#136 = DIRECTION ( 'NONE',  ( -3.491481338843133355E-15, 1.224646799147353207E-16, -1.000000000000000000 ) ) ;
#137 = EDGE_LOOP ( 'NONE', ( #168 ) ) ;
#138 = EDGE_LOOP ( 'NONE', ( #118 ) ) ;
#139 = FACE_OUTER_BOUND ( 'NONE', #11, .T. ) ;
#140 = CARTESIAN_POINT ( 'NONE',  ( 1.326762908760390423E-13, 5.999039130647368851E-33, 38.00000000000000000 ) ) ;
#141 = ORIENTED_EDGE ( 'NONE', *, *, #196, .T. ) ;
#142 = PERSON_AND_ORGANIZATION_ROLE ( 'creator' ) ;
#143 = CARTESIAN_POINT ( 'NONE',  ( 4.189777606611760026E-14, 0.8149999999999953948, 12.00000000000000000 ) ) ;
#144 = DATE_TIME_ROLE ( 'creation_date' ) ;
#145 = APPROVAL_STATUS ( 'not_yet_approved' ) ;
#146 = PERSON_AND_ORGANIZATION ( #100, #86 ) ;
#147 = PRODUCT_DEFINITION_SHAPE ( 'NONE', 'NONE',  #53 ) ;
#148 = CC_DESIGN_APPROVAL ( #174, ( #53 ) ) ;
#149 = FACE_BOUND ( 'NONE', #10, .T. ) ;
#150 = CC_DESIGN_PERSON_AND_ORGANIZATION_ASSIGNMENT ( #176, #125, ( #110 ) ) ;
#151 = DIRECTION ( 'NONE',  ( 3.491481338843133355E-15, -1.224646799147353207E-16, 1.000000000000000000 ) ) ;
#152 = ORIENTED_EDGE ( 'NONE', *, *, #196, .F. ) ;
#153 = AXIS2_PLACEMENT_3D ( 'NONE', #24, #116, #197 ) ;
#154 = PERSON_AND_ORGANIZATION ( #100, #86 ) ;
#155 = CALENDAR_DATE ( 2021, 7, 10 ) ;
#156 = DIRECTION ( 'NONE',  ( -3.491481338843133355E-15, 1.224646799147353207E-16, -1.000000000000000000 ) ) ;
#157 = CARTESIAN_POINT ( 'NONE',  ( 4.301654933454028317E-14, 0.9999999999999961142, 12.32042939940025050 ) ) ;
#158 = COORDINATED_UNIVERSAL_TIME_OFFSET ( 1, 0, .AHEAD. ) ;
#159 = CARTESIAN_POINT ( 'NONE',  ( 0.0000000000000000000, 0.0000000000000000000, 0.0000000000000000000 ) ) ;
#160 = AXIS2_PLACEMENT_3D ( 'NONE', #167, #151, #215 ) ;
#161 = APPROVAL_ROLE ( '' ) ;
#162 = EDGE_CURVE ( 'NONE', #51, #51, #8, .T. ) ;
#163 = SECURITY_CLASSIFICATION ( '', '', #66 ) ;
#164 = DIRECTION ( 'NONE',  ( 4.726208452484047838E-31, 1.000000000000000000, 1.330309414092652899E-16 ) ) ;
#165 = CARTESIAN_POINT ( 'NONE',  ( 0.0000000000000000000, 0.0000000000000000000, 0.0000000000000000000 ) ) ;
#166 = ADVANCED_FACE ( 'NONE', ( #139, #201 ), #46, .T. ) ;
#167 = CARTESIAN_POINT ( 'NONE',  ( 1.709783315443081814E-15, -5.997112575680285363E-17, 0.4897014045074635780 ) ) ;
#168 = ORIENTED_EDGE ( 'NONE', *, *, #133, .F. ) ;
#169 = PLANE ( 'NONE',  #91 ) ;
#170 = CALENDAR_DATE ( 2021, 7, 10 ) ;
#171 = APPROVAL_STATUS ( 'not_yet_approved' ) ;
#172 = CIRCLE ( 'NONE', #50, 0.8149999999999969491 ) ;
#173 = CARTESIAN_POINT ( 'NONE',  ( 4.189777606611760026E-14, 0.8149999999999953948, 12.00000000000000000 ) ) ;
#174 = APPROVAL ( #171, 'UNSPECIFIED' ) ;
#175 = AXIS2_PLACEMENT_3D ( 'NONE', #165, #79, #121 ) ;
#176 = PERSON_AND_ORGANIZATION ( #100, #86 ) ;
#177 = CONICAL_SURFACE ( 'NONE', #160, 0.8149999999999941735, 1.029744258676649649 ) ;
#178 = EDGE_LOOP ( 'NONE', ( #218 ) ) ;
#179 = CARTESIAN_POINT ( 'NONE',  ( 4.189777606611760026E-14, -1.469576158976823947E-15, 12.00000000000000000 ) ) ;
#180 = AXIS2_PLACEMENT_3D ( 'NONE', #159, #206, #52 ) ;
#181 = ORIENTED_EDGE ( 'NONE', *, *, #82, .F. ) ;
#182 = EDGE_LOOP ( 'NONE', ( #6 ) ) ;
#183 = COORDINATED_UNIVERSAL_TIME_OFFSET ( 1, 0, .AHEAD. ) ;
#184 = CARTESIAN_POINT ( 'NONE',  ( 0.0000000000000000000, 0.0000000000000000000, 0.0000000000000000000 ) ) ;
#185 = APPROVAL_DATE_TIME ( #12, #104 ) ;
#186 = ADVANCED_FACE ( 'NONE', ( #7 ), #177, .T. ) ;
#187 = AXIS2_PLACEMENT_3D ( 'NONE', #101, #59, #164 ) ;
#188 = CARTESIAN_POINT ( 'NONE',  ( 1.319779946082704535E-13, -4.629164900776995227E-15, 37.79999999999999716 ) ) ;
#189 = APPLICATION_PROTOCOL_DEFINITION ( 'international standard', 'config_control_design', 1994, #111 ) ;
#190 = LOCAL_TIME ( 15, 47, 58.00000000000000000, #132 ) ;
#191 = PERSON_AND_ORGANIZATION ( #100, #86 ) ;
#192 = CIRCLE ( 'NONE', #187, 0.8149999999999941735 ) ;
#193 = CARTESIAN_POINT ( 'NONE',  ( 4.189777606611760026E-14, 6.111521114347024730E-33, 12.00000000000000000 ) ) ;
#194 = MANIFOLD_SOLID_BREP ( 'Corps-Déplacer/Copier1[1]', #216 ) ;
#195 = EDGE_LOOP ( 'NONE', ( #141 ) ) ;
#196 = EDGE_CURVE ( 'NONE', #71, #71, #172, .T. ) ;
#197 = DIRECTION ( 'NONE',  ( 0.0000000000000000000, 1.000000000000000000, 0.0000000000000000000 ) ) ;
#198 = CARTESIAN_POINT ( 'NONE',  ( 4.301654933454028317E-14, -1.508817442809646442E-15, 12.32042939940025050 ) ) ;
#199 = ADVANCED_BREP_SHAPE_REPRESENTATION ( '40910', ( #194, #39, #180 ), #26 ) ;
#200 = ORIENTED_EDGE ( 'NONE', *, *, #162, .T. ) ;
#201 = FACE_OUTER_BOUND ( 'NONE', #27, .T. ) ;
#202 = CIRCLE ( 'NONE', #135, 0.9999999999999976685 ) ;
#203 = PLANE ( 'NONE',  #30 ) ;
#204 = CONICAL_SURFACE ( 'NONE', #212, 0.9999999999999976685, 0.5235987755982907110 ) ;
#205 = PERSON_AND_ORGANIZATION ( #100, #86 ) ;
#206 = DIRECTION ( 'NONE',  ( 0.0000000000000000000, 0.0000000000000000000, 1.000000000000000000 ) ) ;
#207 = CYLINDRICAL_SURFACE ( 'NONE', #21, 0.9999999999999991118 ) ;
#208 = CALENDAR_DATE ( 2021, 7, 10 ) ;
#209 = APPROVAL_ROLE ( '' ) ;
#210 = FACE_BOUND ( 'NONE', #178, .T. ) ;
#211 = FACE_OUTER_BOUND ( 'NONE', #195, .T. ) ;
#212 = AXIS2_PLACEMENT_3D ( 'NONE', #78, #22, #23 ) ;
#213 = DIRECTION ( 'NONE',  ( 0.0000000000000000000, 1.000000000000000000, 0.0000000000000000000 ) ) ;
#214 = DIRECTION ( 'NONE',  ( -3.491481338843133355E-15, 1.224646799147353207E-16, -1.000000000000000000 ) ) ;
#215 = DIRECTION ( 'NONE',  ( -4.726208452484047838E-31, -1.000000000000000000, -1.330309414092652899E-16 ) ) ;
#216 = CLOSED_SHELL ( 'NONE', ( #93, #20, #107, #123, #84 ) ) ;
#217 = CC_DESIGN_PERSON_AND_ORGANIZATION_ASSIGNMENT ( #154, #18, ( #163 ) ) ;
#218 = ORIENTED_EDGE ( 'NONE', *, *, #44, .T. ) ;
#219 = FACE_OUTER_BOUND ( 'NONE', #103, .T. ) ;
#220 = DIRECTION ( 'NONE',  ( 0.0000000000000000000, 1.000000000000000000, 0.0000000000000000000 ) ) ;
#221 = AXIS2_PLACEMENT_3D ( 'NONE', #188, #98, #213 ) ;
#222 =( NAMED_UNIT ( * ) SI_UNIT ( $, .STERADIAN. ) SOLID_ANGLE_UNIT ( ) );
#223 =( LENGTH_UNIT ( ) NAMED_UNIT ( * ) SI_UNIT ( .MILLI., .METRE. ) );
ENDSEC;
END-ISO-10303-21;
