ISO-10303-21;
HEADER;
FILE_DESCRIPTION (( 'STEP AP203' ),
    '1' );
FILE_NAME ('40868.step',
    '2021-11-01T12:23:28',
    ( '' ),
    ( '' ),
    'SwSTEP 2.0',
    'SolidWorks 2019',
    '' );
FILE_SCHEMA (( 'CONFIG_CONTROL_DESIGN' ));
ENDSEC;

DATA;
#1 = AXIS2_PLACEMENT_3D ( 'NONE', #40, #20, #73 ) ;
#2 = APPROVAL_DATE_TIME ( #210, #21 ) ;
#3 = DIRECTION ( 'NONE',  ( -4.285855558155652404E-31, -1.000000000000000000, -1.227517819005651059E-16 ) ) ;
#4 = DIRECTION ( 'NONE',  ( -3.491481338843133355E-15, 1.224646799147353207E-16, -1.000000000000000000 ) ) ;
#5 = PLANE ( 'NONE',  #145 ) ;
#6 = CARTESIAN_POINT ( 'NONE',  ( 1.326762908760390423E-13, 8.998558695971051224E-33, 38.00000000000000000 ) ) ;
#7 = VERTEX_POINT ( 'NONE', #219 ) ;
#8 = PERSON_AND_ORGANIZATION_ROLE ( 'classification_officer' ) ;
#9 = APPROVAL_ROLE ( '' ) ;
#10 = EDGE_LOOP ( 'NONE', ( #93 ) ) ;
#11 = DIRECTION ( 'NONE',  ( 1.000000000000000000, 0.0000000000000000000, 0.0000000000000000000 ) ) ;
#12 = EDGE_LOOP ( 'NONE', ( #184 ) ) ;
#13 = APPROVAL_DATE_TIME ( #222, #173 ) ;
#14 = CALENDAR_DATE ( 2021, 1, 11 ) ;
#15 = LOCAL_TIME ( 13, 23, 28.00000000000000000, #151 ) ;
#16 = LOCAL_TIME ( 13, 23, 28.00000000000000000, #190 ) ;
#17 = APPLICATION_CONTEXT ( 'configuration controlled 3d designs of mechanical parts and assemblies' ) ;
#18 = ADVANCED_FACE ( 'NONE', ( #185, #45 ), #149, .F. ) ;
#19 = DIRECTION ( 'NONE',  ( 3.491481338843133355E-15, -1.224646799147353207E-16, 1.000000000000000000 ) ) ;
#20 = DIRECTION ( 'NONE',  ( -3.491481338843133355E-15, 1.227517819005651059E-16, -1.000000000000000000 ) ) ;
#21 = APPROVAL ( #164, 'UNSPECIFIED' ) ;
#22 = CARTESIAN_POINT ( 'NONE',  ( 1.316288464743861212E-13, 1.499999999999992228, 37.69999999999999574 ) ) ;
#23 = DIRECTION ( 'NONE',  ( 3.491481338843133355E-15, -1.227517819005651059E-16, 1.000000000000000000 ) ) ;
#24 = FACE_OUTER_BOUND ( 'NONE', #77, .T. ) ;
#25 = DIRECTION ( 'NONE',  ( 3.491481338843133355E-15, -1.227517819005651059E-16, 1.000000000000000000 ) ) ;
#26 = PERSON_AND_ORGANIZATION_ROLE ( 'design_owner' ) ;
#27 = FACE_OUTER_BOUND ( 'NONE', #136, .T. ) ;
#28 = COORDINATED_UNIVERSAL_TIME_OFFSET ( 1, 0, .AHEAD. ) ;
#29 = PERSON_AND_ORGANIZATION ( #121, #158 ) ;
#30 = CLOSED_SHELL ( 'NONE', ( #105, #32, #123 ) ) ;
#31 = EDGE_LOOP ( 'NONE', ( #180 ) ) ;
#32 = ADVANCED_FACE ( 'NONE', ( #198, #27 ), #112, .T. ) ;
#33 = PRODUCT_DEFINITION_FORMATION_WITH_SPECIFIED_SOURCE ( 'ANY', '', #214, .NOT_KNOWN. ) ;
#34 = CC_DESIGN_APPROVAL ( #173, ( #84 ) ) ;
#35 = MANIFOLD_SOLID_BREP ( 'Corps-Déplacer/Copier1[1]', #89 ) ;
#36 = MANIFOLD_SOLID_BREP ( 'Corps-Déplacer/Copier1[2]', #30 ) ;
#37 = CONICAL_SURFACE ( 'NONE', #156, 1.199999999999996403, 0.7853981633974461696 ) ;
#38 = EDGE_CURVE ( 'NONE', #55, #55, #68, .T. ) ;
#39 = CARTESIAN_POINT ( 'NONE',  ( 1.326762908760390423E-13, -4.653657836759941941E-15, 38.00000000000000000 ) ) ;
#40 = CARTESIAN_POINT ( 'NONE',  ( 3.066876071900718313E-14, -3.417264983699237320E-16, 8.783882181414998769 ) ) ;
#41 = CC_DESIGN_PERSON_AND_ORGANIZATION_ASSIGNMENT ( #102, #8, ( #72 ) ) ;
#42 = FACE_OUTER_BOUND ( 'NONE', #50, .T. ) ;
#43 = DIRECTION ( 'NONE',  ( 4.275831445896958607E-31, 1.000000000000000000, 1.224646799147353207E-16 ) ) ;
#44 = DIRECTION ( 'NONE',  ( 0.0000000000000000000, 1.000000000000000000, 0.0000000000000000000 ) ) ;
#45 = FACE_OUTER_BOUND ( 'NONE', #187, .T. ) ;
#46 = PERSON_AND_ORGANIZATION_ROLE ( 'creator' ) ;
#47 = EDGE_LOOP ( 'NONE', ( #163 ) ) ;
#48 = PERSON_AND_ORGANIZATION ( #121, #158 ) ;
#49 = PERSON_AND_ORGANIZATION ( #121, #158 ) ;
#50 = EDGE_LOOP ( 'NONE', ( #169 ) ) ;
#51 = AXIS2_PLACEMENT_3D ( 'NONE', #106, #124, #157 ) ;
#52 = CALENDAR_DATE ( 2021, 1, 11 ) ;
#53 = DESIGN_CONTEXT ( 'detailed design', #17, 'design' ) ;
#54 = PLANE ( 'NONE',  #175 ) ;
#55 = VERTEX_POINT ( 'NONE', #91 ) ;
#56 = FACE_OUTER_BOUND ( 'NONE', #167, .T. ) ;
#57 = CIRCLE ( 'NONE', #188, 0.9999999999999981126 ) ;
#58 = APPROVAL_PERSON_ORGANIZATION ( #49, #159, #204 ) ;
#59 = PLANE ( 'NONE',  #100 ) ;
#60 = CARTESIAN_POINT ( 'NONE',  ( 1.326762908760390423E-13, 1.199999999999991962, 38.00000000000000000 ) ) ;
#61 = CC_DESIGN_APPROVAL ( #159, ( #33 ) ) ;
#62 = DATE_TIME_ROLE ( 'classification_date' ) ;
#63 = APPROVAL_STATUS ( 'not_yet_approved' ) ;
#64 = EDGE_CURVE ( 'NONE', #125, #125, #79, .T. ) ;
#65 = ORIENTED_EDGE ( 'NONE', *, *, #38, .F. ) ;
#66 = DATE_TIME_ROLE ( 'creation_date' ) ;
#67 = APPLICATION_CONTEXT ( 'configuration controlled 3d designs of mechanical parts and assemblies' ) ;
#68 = CIRCLE ( 'NONE', #1, 1.499999999999994893 ) ;
#69 = DIRECTION ( 'NONE',  ( -4.275831445896958607E-31, -1.000000000000000000, -1.224646799147353207E-16 ) ) ;
#70 = CARTESIAN_POINT ( 'NONE',  ( -1.068955699180124974E-30, 3.749391872347842802E-32, -3.061610804811898502E-16 ) ) ;
#71 = CARTESIAN_POINT ( 'NONE',  ( -4.285855558155645397E-31, -7.481082693103445293E-33, -1.227517819005648593E-16 ) ) ;
#72 = SECURITY_CLASSIFICATION ( '', '', #206 ) ;
#73 = DIRECTION ( 'NONE',  ( 0.0000000000000000000, 1.000000000000000000, 0.0000000000000000000 ) ) ;
#74 =( LENGTH_UNIT ( ) NAMED_UNIT ( * ) SI_UNIT ( .MILLI., .METRE. ) );
#75 = EDGE_LOOP ( 'NONE', ( #65 ) ) ;
#76 = DATE_AND_TIME ( #14, #155 ) ;
#77 = EDGE_LOOP ( 'NONE', ( #115 ) ) ;
#78 = EDGE_CURVE ( 'NONE', #161, #161, #120, .T. ) ;
#79 = CIRCLE ( 'NONE', #83, 1.499999999999996669 ) ;
#80 = ORIENTED_EDGE ( 'NONE', *, *, #139, .T. ) ;
#81 = CALENDAR_DATE ( 2021, 1, 11 ) ;
#82 = DATE_AND_TIME ( #147, #15 ) ;
#83 = AXIS2_PLACEMENT_3D ( 'NONE', #215, #4, #162 ) ;
#84 = PRODUCT_DEFINITION ( 'UNKNOWN', '', #33, #53 ) ;
#85 = CC_DESIGN_PERSON_AND_ORGANIZATION_ASSIGNMENT ( #186, #101, ( #33 ) ) ;
#86 = CIRCLE ( 'NONE', #104, 1.199999999999996403 ) ;
#87 = UNCERTAINTY_MEASURE_WITH_UNIT (LENGTH_MEASURE( 1.000000000000000082E-05 ), #74, 'distance_accuracy_value', 'NONE');
#88 = DIRECTION ( 'NONE',  ( -4.275831445896958607E-31, -1.000000000000000000, -1.224646799147353207E-16 ) ) ;
#89 = CLOSED_SHELL ( 'NONE', ( #142, #218, #152, #18, #209 ) ) ;
#90 = DIRECTION ( 'NONE',  ( 0.0000000000000000000, -1.000000000000000000, 0.0000000000000000000 ) ) ;
#91 = CARTESIAN_POINT ( 'NONE',  ( 3.066876071900718313E-14, 1.499999999999994449, 8.783882181414998769 ) ) ;
#92 = CARTESIAN_POINT ( 'NONE',  ( 2.094888803305879382E-14, -0.9999999999999986677, 5.999999999999998224 ) ) ;
#93 = ORIENTED_EDGE ( 'NONE', *, *, #64, .T. ) ;
#94 = APPROVAL_PERSON_ORGANIZATION ( #220, #21, #134 ) ;
#95 = PERSON_AND_ORGANIZATION ( #121, #158 ) ;
#96 = ORIENTED_EDGE ( 'NONE', *, *, #78, .F. ) ;
#97 = DIRECTION ( 'NONE',  ( 0.0000000000000000000, 0.0000000000000000000, 1.000000000000000000 ) ) ;
#98 = CARTESIAN_POINT ( 'NONE',  ( 2.094888803305879067E-14, 0.0000000000000000000, 5.999999999999997335 ) ) ;
#99 = CC_DESIGN_APPROVAL ( #21, ( #72 ) ) ;
#100 = AXIS2_PLACEMENT_3D ( 'NONE', #70, #19, #178 ) ;
#101 = PERSON_AND_ORGANIZATION_ROLE ( 'creator' ) ;
#102 = PERSON_AND_ORGANIZATION ( #121, #158 ) ;
#103 = CC_DESIGN_SECURITY_CLASSIFICATION ( #72, ( #33 ) ) ;
#104 = AXIS2_PLACEMENT_3D ( 'NONE', #39, #197, #44 ) ;
#105 = ADVANCED_FACE ( 'NONE', ( #24 ), #144, .T. ) ;
#106 = CARTESIAN_POINT ( 'NONE',  ( 0.0000000000000000000, 0.0000000000000000000, 0.0000000000000000000 ) ) ;
#107 = EDGE_CURVE ( 'NONE', #7, #7, #57, .T. ) ;
#108 = DIRECTION ( 'NONE',  ( 3.491481338843133355E-15, -1.227517819005651059E-16, 1.000000000000000000 ) ) ;
#109 = FACE_BOUND ( 'NONE', #133, .T. ) ;
#110 = DIRECTION ( 'NONE',  ( -3.491481338843133355E-15, 1.224646799147353207E-16, -1.000000000000000000 ) ) ;
#111 = VERTEX_POINT ( 'NONE', #60 ) ;
#112 = CYLINDRICAL_SURFACE ( 'NONE', #127, 0.9999999999999978906 ) ;
#113 = CC_DESIGN_PERSON_AND_ORGANIZATION_ASSIGNMENT ( #95, #153, ( #33 ) ) ;
#114 = DIRECTION ( 'NONE',  ( 3.491481338843133355E-15, -1.227517819005651059E-16, 1.000000000000000000 ) ) ;
#115 = ORIENTED_EDGE ( 'NONE', *, *, #78, .T. ) ;
#116 = APPROVAL_DATE_TIME ( #76, #159 ) ;
#117 = EDGE_LOOP ( 'NONE', ( #150 ) ) ;
#118 = APPROVAL_PERSON_ORGANIZATION ( #48, #173, #9 ) ;
#119 = DATE_AND_TIME ( #52, #207 ) ;
#120 = CIRCLE ( 'NONE', #200, 0.9999999999999981126 ) ;
#121 = PERSON ( 'UNSPECIFIED', 'UNSPECIFIED', 'UNSPECIFIED', ('UNSPECIFIED'), ('UNSPECIFIED'), ('UNSPECIFIED') ) ;
#122 = AXIS2_PLACEMENT_3D ( 'NONE', #98, #114, #130 ) ;
#123 = ADVANCED_FACE ( 'NONE', ( #56 ), #59, .F. ) ;
#124 = DIRECTION ( 'NONE',  ( -3.491481338843133355E-15, 1.224646799147353207E-16, -1.000000000000000000 ) ) ;
#125 = VERTEX_POINT ( 'NONE', #22 ) ;
#126 = FACE_OUTER_BOUND ( 'NONE', #117, .T. ) ;
#127 = AXIS2_PLACEMENT_3D ( 'NONE', #182, #25, #3 ) ;
#128 = FACE_OUTER_BOUND ( 'NONE', #10, .T. ) ;
#129 = DIRECTION ( 'NONE',  ( 3.491481338843133355E-15, -1.224646799147353207E-16, 1.000000000000000000 ) ) ;
#130 = DIRECTION ( 'NONE',  ( -4.348338603810381847E-31, -1.000000000000000000, -1.227517819005651059E-16 ) ) ;
#131 = CALENDAR_DATE ( 2021, 1, 11 ) ;
#132 = LOCAL_TIME ( 13, 23, 28.00000000000000000, #28 ) ;
#133 = EDGE_LOOP ( 'NONE', ( #80 ) ) ;
#134 = APPROVAL_ROLE ( '' ) ;
#135 = APPROVAL_STATUS ( 'not_yet_approved' ) ;
#136 = EDGE_LOOP ( 'NONE', ( #96 ) ) ;
#137 = CARTESIAN_POINT ( 'NONE',  ( 0.0000000000000000000, 0.0000000000000000000, 0.0000000000000000000 ) ) ;
#138 = CIRCLE ( 'NONE', #199, 0.9999999999999978906 ) ;
#139 = EDGE_CURVE ( 'NONE', #111, #111, #86, .T. ) ;
#140 = DIRECTION ( 'NONE',  ( 0.0000000000000000000, 1.000000000000000000, 0.0000000000000000000 ) ) ;
#141 = CARTESIAN_POINT ( 'NONE',  ( 2.094888803305879382E-14, -6.938893903907257566E-15, 5.999999999999998224 ) ) ;
#142 = ADVANCED_FACE ( 'NONE', ( #128, #196 ), #193, .T. ) ;
#143 = FACE_OUTER_BOUND ( 'NONE', #12, .T. ) ;
#144 = PLANE ( 'NONE',  #194 ) ;
#145 = AXIS2_PLACEMENT_3D ( 'NONE', #6, #195, #43 ) ;
#146 = CARTESIAN_POINT ( 'NONE',  ( 2.094888803305879382E-14, -7.365106914033904380E-16, 5.999999999999998224 ) ) ;
#147 = CALENDAR_DATE ( 2021, 1, 11 ) ;
#148 = COORDINATED_UNIVERSAL_TIME_OFFSET ( 1, 0, .AHEAD. ) ;
#149 = TOROIDAL_SURFACE ( 'NONE', #122, 8.999999999999998224, 8.000000000000000000 ) ;
#150 = ORIENTED_EDGE ( 'NONE', *, *, #107, .F. ) ;
#151 = COORDINATED_UNIVERSAL_TIME_OFFSET ( 1, 0, .AHEAD. ) ;
#152 = ADVANCED_FACE ( 'NONE', ( #143 ), #5, .F. ) ;
#153 = PERSON_AND_ORGANIZATION_ROLE ( 'design_supplier' ) ;
#154 = CARTESIAN_POINT ( 'NONE',  ( -8.571711116311289043E-31, -0.9999999999999978906, -2.455035638011297187E-16 ) ) ;
#155 = LOCAL_TIME ( 13, 23, 28.00000000000000000, #189 ) ;
#156 = AXIS2_PLACEMENT_3D ( 'NONE', #213, #110, #140 ) ;
#157 = DIRECTION ( 'NONE',  ( 4.275831445896958607E-31, 1.000000000000000000, 1.224646799147353207E-16 ) ) ;
#158 = ORGANIZATION ( 'UNSPECIFIED', 'UNSPECIFIED', '' ) ;
#159 = APPROVAL ( #135, 'UNSPECIFIED' ) ;
#160 = DIRECTION ( 'NONE',  ( 0.0000000000000000000, -1.000000000000000000, 0.0000000000000000000 ) ) ;
#161 = VERTEX_POINT ( 'NONE', #92 ) ;
#162 = DIRECTION ( 'NONE',  ( 0.0000000000000000000, 1.000000000000000000, 0.0000000000000000000 ) ) ;
#163 = ORIENTED_EDGE ( 'NONE', *, *, #223, .T. ) ;
#164 = APPROVAL_STATUS ( 'not_yet_approved' ) ;
#165 = CC_DESIGN_PERSON_AND_ORGANIZATION_ASSIGNMENT ( #208, #26, ( #214 ) ) ;
#166 =( NAMED_UNIT ( * ) PLANE_ANGLE_UNIT ( ) SI_UNIT ( $, .RADIAN. ) );
#167 = EDGE_LOOP ( 'NONE', ( #202 ) ) ;
#168 =( NAMED_UNIT ( * ) SI_UNIT ( $, .STERADIAN. ) SOLID_ANGLE_UNIT ( ) );
#169 = ORIENTED_EDGE ( 'NONE', *, *, #64, .F. ) ;
#170 = CC_DESIGN_PERSON_AND_ORGANIZATION_ASSIGNMENT ( #29, #46, ( #84 ) ) ;
#171 = APPLICATION_PROTOCOL_DEFINITION ( 'international standard', 'config_control_design', 1994, #67 ) ;
#172 = MECHANICAL_CONTEXT ( 'NONE', #67, 'mechanical' ) ;
#173 = APPROVAL ( #63, 'UNSPECIFIED' ) ;
#174 = PRODUCT_DEFINITION_SHAPE ( 'NONE', 'NONE',  #84 ) ;
#175 = AXIS2_PLACEMENT_3D ( 'NONE', #141, #129, #69 ) ;
#176 = PRODUCT_RELATED_PRODUCT_CATEGORY ( 'detail', '', ( #214 ) ) ;
#177 = CARTESIAN_POINT ( 'NONE',  ( 2.094888803305879382E-14, -7.365106914033904380E-16, 5.999999999999998224 ) ) ;
#178 = DIRECTION ( 'NONE',  ( -4.275831445896958607E-31, -1.000000000000000000, -1.224646799147353207E-16 ) ) ;
#179 = DIRECTION ( 'NONE',  ( 3.491481338843133355E-15, -1.227517819005651059E-16, 1.000000000000000000 ) ) ;
#180 = ORIENTED_EDGE ( 'NONE', *, *, #107, .T. ) ;
#181 = VERTEX_POINT ( 'NONE', #154 ) ;
#182 = CARTESIAN_POINT ( 'NONE',  ( -6.413731847436034514E-31, 0.0000000000000000000, -1.836965810494968570E-16 ) ) ;
#183 = APPLICATION_PROTOCOL_DEFINITION ( 'international standard', 'config_control_design', 1994, #17 ) ;
#184 = ORIENTED_EDGE ( 'NONE', *, *, #139, .F. ) ;
#185 = FACE_OUTER_BOUND ( 'NONE', #31, .T. ) ;
#186 = PERSON_AND_ORGANIZATION ( #121, #158 ) ;
#187 = EDGE_LOOP ( 'NONE', ( #205 ) ) ;
#188 = AXIS2_PLACEMENT_3D ( 'NONE', #146, #108, #160 ) ;
#189 = COORDINATED_UNIVERSAL_TIME_OFFSET ( 1, 0, .AHEAD. ) ;
#190 = COORDINATED_UNIVERSAL_TIME_OFFSET ( 1, 0, .AHEAD. ) ;
#191 = CC_DESIGN_DATE_AND_TIME_ASSIGNMENT ( #119, #62, ( #72 ) ) ;
#192 = DIRECTION ( 'NONE',  ( -4.285855558155652404E-31, -1.000000000000000000, -1.227517819005651305E-16 ) ) ;
#193 = CYLINDRICAL_SURFACE ( 'NONE', #51, 1.499999999999994893 ) ;
#194 = AXIS2_PLACEMENT_3D ( 'NONE', #212, #217, #88 ) ;
#195 = DIRECTION ( 'NONE',  ( -3.491481338843133355E-15, 1.224646799147353207E-16, -1.000000000000000000 ) ) ;
#196 = FACE_OUTER_BOUND ( 'NONE', #75, .T. ) ;
#197 = DIRECTION ( 'NONE',  ( -3.491481338843133355E-15, 1.224646799147353207E-16, -1.000000000000000000 ) ) ;
#198 = FACE_OUTER_BOUND ( 'NONE', #47, .T. ) ;
#199 = AXIS2_PLACEMENT_3D ( 'NONE', #71, #23, #192 ) ;
#200 = AXIS2_PLACEMENT_3D ( 'NONE', #177, #179, #90 ) ;
#201 =( GEOMETRIC_REPRESENTATION_CONTEXT ( 3 ) GLOBAL_UNCERTAINTY_ASSIGNED_CONTEXT ( ( #87 ) ) GLOBAL_UNIT_ASSIGNED_CONTEXT ( ( #74, #166, #168 ) ) REPRESENTATION_CONTEXT ( 'NONE', 'WORKASPACE' ) );
#202 = ORIENTED_EDGE ( 'NONE', *, *, #223, .F. ) ;
#203 = CC_DESIGN_DATE_AND_TIME_ASSIGNMENT ( #82, #66, ( #84 ) ) ;
#204 = APPROVAL_ROLE ( '' ) ;
#205 = ORIENTED_EDGE ( 'NONE', *, *, #38, .T. ) ;
#206 = SECURITY_CLASSIFICATION_LEVEL ( 'unclassified' ) ;
#207 = LOCAL_TIME ( 13, 23, 28.00000000000000000, #148 ) ;
#208 = PERSON_AND_ORGANIZATION ( #121, #158 ) ;
#209 = ADVANCED_FACE ( 'NONE', ( #126 ), #54, .F. ) ;
#210 = DATE_AND_TIME ( #131, #16 ) ;
#211 = SHAPE_DEFINITION_REPRESENTATION ( #174, #216 ) ;
#212 = CARTESIAN_POINT ( 'NONE',  ( 2.094888803305879382E-14, -6.938893903907257566E-15, 5.999999999999998224 ) ) ;
#213 = CARTESIAN_POINT ( 'NONE',  ( 1.326762908760390423E-13, -4.653657836759941941E-15, 38.00000000000000000 ) ) ;
#214 = PRODUCT ( '40868', '40868', '', ( #172 ) ) ;
#215 = CARTESIAN_POINT ( 'NONE',  ( 1.316288464743861212E-13, -4.616918432785521081E-15, 37.69999999999999574 ) ) ;
#216 = ADVANCED_BREP_SHAPE_REPRESENTATION ( '40868', ( #35, #36, #221 ), #201 ) ;
#217 = DIRECTION ( 'NONE',  ( 3.491481338843133355E-15, -1.224646799147353207E-16, 1.000000000000000000 ) ) ;
#218 = ADVANCED_FACE ( 'NONE', ( #42, #109 ), #37, .T. ) ;
#219 = CARTESIAN_POINT ( 'NONE',  ( 2.094888803305879382E-14, -0.9999999999999986677, 5.999999999999998224 ) ) ;
#220 = PERSON_AND_ORGANIZATION ( #121, #158 ) ;
#221 = AXIS2_PLACEMENT_3D ( 'NONE', #137, #97, #11 ) ;
#222 = DATE_AND_TIME ( #81, #132 ) ;
#223 = EDGE_CURVE ( 'NONE', #181, #181, #138, .T. ) ;
ENDSEC;
END-ISO-10303-21;
