ISO-10303-21;
HEADER;
FILE_DESCRIPTION (( 'STEP AP203' ),
    '1' );
FILE_NAME ('40866.step',
    '2021-10-07T13:47:58',
    ( '' ),
    ( '' ),
    'SwSTEP 2.0',
    'SolidWorks 2019',
    '' );
FILE_SCHEMA (( 'CONFIG_CONTROL_DESIGN' ));
ENDSEC;

DATA;
#1 = ORIENTED_EDGE ( 'NONE', *, *, #64, .F. ) ;
#2 = CARTESIAN_POINT ( 'NONE',  ( 2.199633243471174014E-14, 2.887037581624054889E-33, 6.299999999999999822 ) ) ;
#3 = CIRCLE ( 'NONE', #51, 0.3849999999999987321 ) ;
#4 = CC_DESIGN_PERSON_AND_ORGANIZATION_ASSIGNMENT ( #207, #82, ( #84 ) ) ;
#5 = FACE_OUTER_BOUND ( 'NONE', #147, .T. ) ;
#6 = CARTESIAN_POINT ( 'NONE',  ( 1.047444401652940007E-13, 0.3999999999999951927, 30.00000000000000000 ) ) ;
#7 = PRODUCT_DEFINITION ( 'UNKNOWN', '', #134, #114 ) ;
#8 = CARTESIAN_POINT ( 'NONE',  ( 2.199633243471174014E-14, -7.715274834628325378E-16, 6.299999999999999822 ) ) ;
#9 = VERTEX_POINT ( 'NONE', #144 ) ;
#10 = AXIS2_PLACEMENT_3D ( 'NONE', #59, #175, #189 ) ;
#11 = EDGE_LOOP ( 'NONE', ( #81 ) ) ;
#12 = COORDINATED_UNIVERSAL_TIME_OFFSET ( 1, 0, .AHEAD. ) ;
#13 = PERSON_AND_ORGANIZATION ( #196, #194 ) ;
#14 = CIRCLE ( 'NONE', #88, 0.4999999999999989453 ) ;
#15 = CC_DESIGN_SECURITY_CLASSIFICATION ( #84, ( #134 ) ) ;
#16 = APPROVAL_STATUS ( 'not_yet_approved' ) ;
#17 = MECHANICAL_CONTEXT ( 'NONE', #94, 'mechanical' ) ;
#18 = AXIS2_PLACEMENT_3D ( 'NONE', #19, #126, #172 ) ;
#19 = CARTESIAN_POINT ( 'NONE',  ( 1.047444401652940007E-13, -3.673940397442059178E-15, 30.00000000000000000 ) ) ;
#20 = CC_DESIGN_DATE_AND_TIME_ASSIGNMENT ( #203, #222, ( #7 ) ) ;
#21 = EDGE_LOOP ( 'NONE', ( #106 ) ) ;
#22 = PRODUCT ( '40866', '40866', '', ( #17 ) ) ;
#23 = PLANE ( 'NONE',  #167 ) ;
#24 = AXIS2_PLACEMENT_3D ( 'NONE', #108, #43, #213 ) ;
#25 = ORIENTED_EDGE ( 'NONE', *, *, #26, .T. ) ;
#26 = EDGE_CURVE ( 'NONE', #110, #110, #41, .T. ) ;
#27 = DIRECTION ( 'NONE',  ( -3.491481338843133355E-15, 1.224646799147353207E-16, -1.000000000000000000 ) ) ;
#28 = DIRECTION ( 'NONE',  ( 0.0000000000000000000, 1.000000000000000000, 0.0000000000000000000 ) ) ;
#29 = CARTESIAN_POINT ( 'NONE',  ( 2.199633243471174014E-14, 0.3849999999999979550, 6.299999999999999822 ) ) ;
#30 = AXIS2_PLACEMENT_3D ( 'NONE', #95, #73, #209 ) ;
#31 = CC_DESIGN_APPROVAL ( #201, ( #134 ) ) ;
#32 = DIRECTION ( 'NONE',  ( -5.002415439966878322E-31, -1.000000000000000000, -1.408054769461703063E-16 ) ) ;
#33 = CARTESIAN_POINT ( 'NONE',  ( 1.043952920314096936E-13, -3.661693929450586610E-15, 29.90000000000000213 ) ) ;
#34 = CC_DESIGN_PERSON_AND_ORGANIZATION_ASSIGNMENT ( #100, #85, ( #134 ) ) ;
#35 = CONICAL_SURFACE ( 'NONE', #10, 0.4999999999999963363, 0.2617993877991424134 ) ;
#36 = APPROVAL_DATE_TIME ( #136, #201 ) ;
#37 = DATE_AND_TIME ( #219, #161 ) ;
#38 = PERSON_AND_ORGANIZATION ( #196, #194 ) ;
#39 = APPROVAL_DATE_TIME ( #185, #127 ) ;
#40 = PERSON_AND_ORGANIZATION_ROLE ( 'design_owner' ) ;
#41 = CIRCLE ( 'NONE', #18, 0.3999999999999988565 ) ;
#42 = CC_DESIGN_APPROVAL ( #149, ( #84 ) ) ;
#43 = DIRECTION ( 'NONE',  ( -3.491481338843133355E-15, 1.224646799147353207E-16, -1.000000000000000000 ) ) ;
#44 = DIRECTION ( 'NONE',  ( 4.275831445896958607E-31, 1.000000000000000000, 1.224646799147353207E-16 ) ) ;
#45 = FACE_OUTER_BOUND ( 'NONE', #173, .T. ) ;
#46 = FACE_OUTER_BOUND ( 'NONE', #62, .T. ) ;
#47 = LOCAL_TIME ( 15, 47, 58.00000000000000000, #169 ) ;
#48 = EDGE_LOOP ( 'NONE', ( #159 ) ) ;
#49 = VERTEX_POINT ( 'NONE', #29 ) ;
#50 = CC_DESIGN_PERSON_AND_ORGANIZATION_ASSIGNMENT ( #13, #204, ( #134 ) ) ;
#51 = AXIS2_PLACEMENT_3D ( 'NONE', #8, #197, #78 ) ;
#52 = PERSON_AND_ORGANIZATION ( #196, #194 ) ;
#53 = ORIENTED_EDGE ( 'NONE', *, *, #210, .T. ) ;
#54 = CIRCLE ( 'NONE', #174, 0.3849999999999975664 ) ;
#55 = DIRECTION ( 'NONE',  ( 1.000000000000000000, 0.0000000000000000000, 0.0000000000000000000 ) ) ;
#56 = APPROVAL_ROLE ( '' ) ;
#57 = FACE_BOUND ( 'NONE', #202, .T. ) ;
#58 = APPROVAL_PERSON_ORGANIZATION ( #150, #149, #56 ) ;
#59 = CARTESIAN_POINT ( 'NONE',  ( 2.349482679598948617E-14, -8.240875903338949293E-16, 6.729185842870424317 ) ) ;
#60 = CARTESIAN_POINT ( 'NONE',  ( 8.076890508534808301E-16, -2.832991830229338728E-17, 0.2313313383256117572 ) ) ;
#61 = DIRECTION ( 'NONE',  ( -4.275831445896958607E-31, -1.000000000000000000, -1.224646799147353207E-16 ) ) ;
#62 = EDGE_LOOP ( 'NONE', ( #77 ) ) ;
#63 = CARTESIAN_POINT ( 'NONE',  ( 8.076890508534810273E-16, 0.3849999999999975109, 0.2313313383256118128 ) ) ;
#64 = EDGE_CURVE ( 'NONE', #9, #9, #220, .T. ) ;
#65 =( LENGTH_UNIT ( ) NAMED_UNIT ( * ) SI_UNIT ( .MILLI., .METRE. ) );
#66 = ADVANCED_FACE ( 'NONE', ( #156, #125 ), #74, .T. ) ;
#67 = CARTESIAN_POINT ( 'NONE',  ( 0.0000000000000000000, 0.0000000000000000000, 0.0000000000000000000 ) ) ;
#68 = APPROVAL_DATE_TIME ( #37, #149 ) ;
#69 = EDGE_LOOP ( 'NONE', ( #1 ) ) ;
#70 = PERSON_AND_ORGANIZATION ( #196, #194 ) ;
#71 = APPROVAL_ROLE ( '' ) ;
#72 = DIRECTION ( 'NONE',  ( 0.0000000000000000000, 0.0000000000000000000, 1.000000000000000000 ) ) ;
#73 = DIRECTION ( 'NONE',  ( -3.491481338843133355E-15, 1.224646799147353207E-16, -1.000000000000000000 ) ) ;
#74 = CYLINDRICAL_SURFACE ( 'NONE', #30, 0.3849999999999981215 ) ;
#75 = AXIS2_PLACEMENT_3D ( 'NONE', #67, #72, #55 ) ;
#76 = FACE_OUTER_BOUND ( 'NONE', #21, .T. ) ;
#77 = ORIENTED_EDGE ( 'NONE', *, *, #64, .T. ) ;
#78 = DIRECTION ( 'NONE',  ( 0.0000000000000000000, 1.000000000000000000, 0.0000000000000000000 ) ) ;
#79 = FACE_BOUND ( 'NONE', #129, .T. ) ;
#80 = CARTESIAN_POINT ( 'NONE',  ( 2.199633243471174014E-14, 0.3849999999999979550, 6.299999999999999822 ) ) ;
#81 = ORIENTED_EDGE ( 'NONE', *, *, #113, .T. ) ;
#82 = PERSON_AND_ORGANIZATION_ROLE ( 'classification_officer' ) ;
#83 = CALENDAR_DATE ( 2021, 7, 10 ) ;
#84 = SECURITY_CLASSIFICATION ( '', '', #131 ) ;
#85 = PERSON_AND_ORGANIZATION_ROLE ( 'creator' ) ;
#86 = CC_DESIGN_PERSON_AND_ORGANIZATION_ASSIGNMENT ( #132, #115, ( #7 ) ) ;
#87 = COORDINATED_UNIVERSAL_TIME_OFFSET ( 1, 0, .AHEAD. ) ;
#88 = AXIS2_PLACEMENT_3D ( 'NONE', #33, #198, #97 ) ;
#89 = DIRECTION ( 'NONE',  ( -4.275831445896958607E-31, -1.000000000000000000, -1.224646799147353207E-16 ) ) ;
#90 = FACE_OUTER_BOUND ( 'NONE', #93, .T. ) ;
#91 = DIRECTION ( 'NONE',  ( 5.002415439966878322E-31, 1.000000000000000000, 1.408054769461703063E-16 ) ) ;
#92 = APPROVAL_PERSON_ORGANIZATION ( #52, #127, #71 ) ;
#93 = EDGE_LOOP ( 'NONE', ( #53 ) ) ;
#94 = APPLICATION_CONTEXT ( 'configuration controlled 3d designs of mechanical parts and assemblies' ) ;
#95 = CARTESIAN_POINT ( 'NONE',  ( 0.0000000000000000000, 0.0000000000000000000, 0.0000000000000000000 ) ) ;
#96 = VERTEX_POINT ( 'NONE', #80 ) ;
#97 = DIRECTION ( 'NONE',  ( 0.0000000000000000000, 1.000000000000000000, 0.0000000000000000000 ) ) ;
#98 = CIRCLE ( 'NONE', #148, 0.3849999999999987321 ) ;
#99 = EDGE_CURVE ( 'NONE', #49, #49, #98, .T. ) ;
#100 = PERSON_AND_ORGANIZATION ( #196, #194 ) ;
#101 =( GEOMETRIC_REPRESENTATION_CONTEXT ( 3 ) GLOBAL_UNCERTAINTY_ASSIGNED_CONTEXT ( ( #200 ) ) GLOBAL_UNIT_ASSIGNED_CONTEXT ( ( #65, #109, #217 ) ) REPRESENTATION_CONTEXT ( 'NONE', 'WORKASPACE' ) );
#102 = SHAPE_DEFINITION_REPRESENTATION ( #158, #182 ) ;
#103 = CC_DESIGN_APPROVAL ( #127, ( #7 ) ) ;
#104 = CARTESIAN_POINT ( 'NONE',  ( 0.0000000000000000000, 0.0000000000000000000, 0.0000000000000000000 ) ) ;
#105 = FACE_OUTER_BOUND ( 'NONE', #48, .T. ) ;
#106 = ORIENTED_EDGE ( 'NONE', *, *, #99, .F. ) ;
#107 = PRODUCT_RELATED_PRODUCT_CATEGORY ( 'detail', '', ( #22 ) ) ;
#108 = CARTESIAN_POINT ( 'NONE',  ( 2.349482679598948617E-14, -8.240875903338949293E-16, 6.729185842870424317 ) ) ;
#109 =( NAMED_UNIT ( * ) PLANE_ANGLE_UNIT ( ) SI_UNIT ( $, .RADIAN. ) );
#110 = VERTEX_POINT ( 'NONE', #6 ) ;
#111 = MANIFOLD_SOLID_BREP ( 'Corps-Déplacer/Copier1[1]', #152 ) ;
#112 = AXIS2_PLACEMENT_3D ( 'NONE', #145, #146, #32 ) ;
#113 = EDGE_CURVE ( 'NONE', #178, #178, #54, .T. ) ;
#114 = DESIGN_CONTEXT ( 'detailed design', #170, 'design' ) ;
#115 = PERSON_AND_ORGANIZATION_ROLE ( 'creator' ) ;
#116 = CALENDAR_DATE ( 2021, 7, 10 ) ;
#117 = ADVANCED_FACE ( 'NONE', ( #45 ), #223, .F. ) ;
#118 = APPROVAL_ROLE ( '' ) ;
#119 = COORDINATED_UNIVERSAL_TIME_OFFSET ( 1, 0, .AHEAD. ) ;
#120 = DIRECTION ( 'NONE',  ( 3.491481338843133355E-15, -1.224646799147353207E-16, 1.000000000000000000 ) ) ;
#121 = AXIS2_PLACEMENT_3D ( 'NONE', #104, #192, #138 ) ;
#122 = ORIENTED_EDGE ( 'NONE', *, *, #218, .F. ) ;
#123 = CYLINDRICAL_SURFACE ( 'NONE', #121, 0.4999999999999976130 ) ;
#124 = CC_DESIGN_PERSON_AND_ORGANIZATION_ASSIGNMENT ( #38, #40, ( #22 ) ) ;
#125 = FACE_OUTER_BOUND ( 'NONE', #214, .T. ) ;
#126 = DIRECTION ( 'NONE',  ( -3.491481338843133355E-15, 1.224646799147353207E-16, -1.000000000000000000 ) ) ;
#127 = APPROVAL ( #16, 'UNSPECIFIED' ) ;
#128 = LOCAL_TIME ( 15, 47, 58.00000000000000000, #119 ) ;
#129 = EDGE_LOOP ( 'NONE', ( #25 ) ) ;
#130 = ORIENTED_EDGE ( 'NONE', *, *, #218, .T. ) ;
#131 = SECURITY_CLASSIFICATION_LEVEL ( 'unclassified' ) ;
#132 = PERSON_AND_ORGANIZATION ( #196, #194 ) ;
#133 = CALENDAR_DATE ( 2021, 7, 10 ) ;
#134 = PRODUCT_DEFINITION_FORMATION_WITH_SPECIFIED_SOURCE ( 'ANY', '', #22, .NOT_KNOWN. ) ;
#135 = APPROVAL_STATUS ( 'not_yet_approved' ) ;
#136 = DATE_AND_TIME ( #133, #187 ) ;
#137 = ADVANCED_FACE ( 'NONE', ( #76 ), #23, .T. ) ;
#138 = DIRECTION ( 'NONE',  ( 4.275831445896958607E-31, 1.000000000000000000, 1.224646799147353207E-16 ) ) ;
#139 = DIRECTION ( 'NONE',  ( -3.491481338843133355E-15, 1.224646799147353207E-16, -1.000000000000000000 ) ) ;
#140 = ORIENTED_EDGE ( 'NONE', *, *, #99, .T. ) ;
#141 = ADVANCED_FACE ( 'NONE', ( #193, #90 ), #123, .T. ) ;
#142 = ORIENTED_EDGE ( 'NONE', *, *, #26, .F. ) ;
#143 = EDGE_LOOP ( 'NONE', ( #164 ) ) ;
#144 = CARTESIAN_POINT ( 'NONE',  ( 2.349482679598948617E-14, 0.4999999999999954481, 6.729185842870424317 ) ) ;
#145 = CARTESIAN_POINT ( 'NONE',  ( 8.076890508534808301E-16, -2.832991830229338728E-17, 0.2313313383256117572 ) ) ;
#146 = DIRECTION ( 'NONE',  ( 3.491481338843133355E-15, -1.224646799147353207E-16, 1.000000000000000000 ) ) ;
#147 = EDGE_LOOP ( 'NONE', ( #142 ) ) ;
#148 = AXIS2_PLACEMENT_3D ( 'NONE', #212, #191, #160 ) ;
#149 = APPROVAL ( #221, 'UNSPECIFIED' ) ;
#150 = PERSON_AND_ORGANIZATION ( #196, #194 ) ;
#151 = CALENDAR_DATE ( 2021, 7, 10 ) ;
#152 = CLOSED_SHELL ( 'NONE', ( #117, #155, #141, #177, #166 ) ) ;
#153 = AXIS2_PLACEMENT_3D ( 'NONE', #157, #27, #44 ) ;
#154 = APPLICATION_PROTOCOL_DEFINITION ( 'international standard', 'config_control_design', 1994, #170 ) ;
#155 = ADVANCED_FACE ( 'NONE', ( #57, #46 ), #35, .T. ) ;
#156 = FACE_OUTER_BOUND ( 'NONE', #143, .T. ) ;
#157 = CARTESIAN_POINT ( 'NONE',  ( 1.047444401652940007E-13, 2.999519565323651582E-33, 30.00000000000000000 ) ) ;
#158 = PRODUCT_DEFINITION_SHAPE ( 'NONE', 'NONE',  #7 ) ;
#159 = ORIENTED_EDGE ( 'NONE', *, *, #210, .F. ) ;
#160 = DIRECTION ( 'NONE',  ( 0.0000000000000000000, 1.000000000000000000, 0.0000000000000000000 ) ) ;
#161 = LOCAL_TIME ( 15, 47, 58.00000000000000000, #87 ) ;
#162 = CC_DESIGN_DATE_AND_TIME_ASSIGNMENT ( #188, #168, ( #84 ) ) ;
#163 = DIRECTION ( 'NONE',  ( -3.491481338843133355E-15, 1.224646799147353207E-16, -1.000000000000000000 ) ) ;
#164 = ORIENTED_EDGE ( 'NONE', *, *, #113, .F. ) ;
#165 = FACE_OUTER_BOUND ( 'NONE', #11, .T. ) ;
#166 = ADVANCED_FACE ( 'NONE', ( #5 ), #171, .F. ) ;
#167 = AXIS2_PLACEMENT_3D ( 'NONE', #211, #120, #89 ) ;
#168 = DATE_TIME_ROLE ( 'classification_date' ) ;
#169 = COORDINATED_UNIVERSAL_TIME_OFFSET ( 1, 0, .AHEAD. ) ;
#170 = APPLICATION_CONTEXT ( 'configuration controlled 3d designs of mechanical parts and assemblies' ) ;
#171 = PLANE ( 'NONE',  #153 ) ;
#172 = DIRECTION ( 'NONE',  ( 0.0000000000000000000, 1.000000000000000000, 0.0000000000000000000 ) ) ;
#173 = EDGE_LOOP ( 'NONE', ( #130 ) ) ;
#174 = AXIS2_PLACEMENT_3D ( 'NONE', #60, #139, #91 ) ;
#175 = DIRECTION ( 'NONE',  ( 3.491481338843133355E-15, -1.224646799147353207E-16, 1.000000000000000000 ) ) ;
#176 = VERTEX_POINT ( 'NONE', #216 ) ;
#177 = ADVANCED_FACE ( 'NONE', ( #105, #79 ), #183, .T. ) ;
#178 = VERTEX_POINT ( 'NONE', #63 ) ;
#179 = CLOSED_SHELL ( 'NONE', ( #205, #66, #137 ) ) ;
#180 = AXIS2_PLACEMENT_3D ( 'NONE', #181, #163, #28 ) ;
#181 = CARTESIAN_POINT ( 'NONE',  ( 1.047444401652940007E-13, -3.673940397442059178E-15, 30.00000000000000000 ) ) ;
#182 = ADVANCED_BREP_SHAPE_REPRESENTATION ( '40866', ( #111, #186, #75 ), #101 ) ;
#183 = CONICAL_SURFACE ( 'NONE', #180, 0.3999999999999988565, 0.7853981633974689291 ) ;
#184 = APPLICATION_PROTOCOL_DEFINITION ( 'international standard', 'config_control_design', 1994, #94 ) ;
#185 = DATE_AND_TIME ( #151, #47 ) ;
#186 = MANIFOLD_SOLID_BREP ( 'Corps-Déplacer/Copier1[2]', #179 ) ;
#187 = LOCAL_TIME ( 15, 47, 58.00000000000000000, #12 ) ;
#188 = DATE_AND_TIME ( #83, #199 ) ;
#189 = DIRECTION ( 'NONE',  ( 0.0000000000000000000, -1.000000000000000000, 0.0000000000000000000 ) ) ;
#190 = APPROVAL_PERSON_ORGANIZATION ( #70, #201, #118 ) ;
#191 = DIRECTION ( 'NONE',  ( -3.491481338843133355E-15, 1.224646799147353207E-16, -1.000000000000000000 ) ) ;
#192 = DIRECTION ( 'NONE',  ( -3.491481338843133355E-15, 1.224646799147353207E-16, -1.000000000000000000 ) ) ;
#193 = FACE_OUTER_BOUND ( 'NONE', #69, .T. ) ;
#194 = ORGANIZATION ( 'UNSPECIFIED', 'UNSPECIFIED', '' ) ;
#195 = DIRECTION ( 'NONE',  ( 3.491481338843133355E-15, -1.224646799147353207E-16, 1.000000000000000000 ) ) ;
#196 = PERSON ( 'UNSPECIFIED', 'UNSPECIFIED', 'UNSPECIFIED', ('UNSPECIFIED'), ('UNSPECIFIED'), ('UNSPECIFIED') ) ;
#197 = DIRECTION ( 'NONE',  ( -3.491481338843133355E-15, 1.224646799147353207E-16, -1.000000000000000000 ) ) ;
#198 = DIRECTION ( 'NONE',  ( -3.491481338843133355E-15, 1.224646799147353207E-16, -1.000000000000000000 ) ) ;
#199 = LOCAL_TIME ( 15, 47, 58.00000000000000000, #208 ) ;
#200 = UNCERTAINTY_MEASURE_WITH_UNIT (LENGTH_MEASURE( 1.000000000000000082E-05 ), #65, 'distance_accuracy_value', 'NONE');
#201 = APPROVAL ( #135, 'UNSPECIFIED' ) ;
#202 = EDGE_LOOP ( 'NONE', ( #122 ) ) ;
#203 = DATE_AND_TIME ( #116, #128 ) ;
#204 = PERSON_AND_ORGANIZATION_ROLE ( 'design_supplier' ) ;
#205 = ADVANCED_FACE ( 'NONE', ( #165 ), #215, .T. ) ;
#206 = AXIS2_PLACEMENT_3D ( 'NONE', #2, #195, #61 ) ;
#207 = PERSON_AND_ORGANIZATION ( #196, #194 ) ;
#208 = COORDINATED_UNIVERSAL_TIME_OFFSET ( 1, 0, .AHEAD. ) ;
#209 = DIRECTION ( 'NONE',  ( 4.275831445896958607E-31, 1.000000000000000000, 1.224646799147353207E-16 ) ) ;
#210 = EDGE_CURVE ( 'NONE', #176, #176, #14, .T. ) ;
#211 = CARTESIAN_POINT ( 'NONE',  ( 2.199633243471174014E-14, 2.887037581624054889E-33, 6.299999999999999822 ) ) ;
#212 = CARTESIAN_POINT ( 'NONE',  ( 2.199633243471174014E-14, -7.715274834628325378E-16, 6.299999999999999822 ) ) ;
#213 = DIRECTION ( 'NONE',  ( 0.0000000000000000000, 1.000000000000000000, 0.0000000000000000000 ) ) ;
#214 = EDGE_LOOP ( 'NONE', ( #140 ) ) ;
#215 = CONICAL_SURFACE ( 'NONE', #112, 0.3849999999999975664, 1.029744258676649649 ) ;
#216 = CARTESIAN_POINT ( 'NONE',  ( 1.043952920314096936E-13, 0.4999999999999952260, 29.90000000000000213 ) ) ;
#217 =( NAMED_UNIT ( * ) SI_UNIT ( $, .STERADIAN. ) SOLID_ANGLE_UNIT ( ) );
#218 = EDGE_CURVE ( 'NONE', #96, #96, #3, .T. ) ;
#219 = CALENDAR_DATE ( 2021, 7, 10 ) ;
#220 = CIRCLE ( 'NONE', #24, 0.4999999999999963363 ) ;
#221 = APPROVAL_STATUS ( 'not_yet_approved' ) ;
#222 = DATE_TIME_ROLE ( 'creation_date' ) ;
#223 = PLANE ( 'NONE',  #206 ) ;
ENDSEC;
END-ISO-10303-21;
