ISO-10303-21;
HEADER;
FILE_DESCRIPTION (( 'STEP AP203' ),
    '1' );
FILE_NAME ('40864.step',
    '2021-09-02T13:22:36',
    ( '' ),
    ( '' ),
    'SwSTEP 2.0',
    'SolidWorks 2019',
    '' );
FILE_SCHEMA (( 'CONFIG_CONTROL_DESIGN' ));
ENDSEC;

DATA;
#1 = CARTESIAN_POINT ( 'NONE',  ( 1.239991119310114825E-30, 2.899999999999992362, 3.551475717527314958E-16 ) ) ;
#2 = PERSON ( 'UNSPECIFIED', 'UNSPECIFIED', 'UNSPECIFIED', ('UNSPECIFIED'), ('UNSPECIFIED'), ('UNSPECIFIED') ) ;
#3 = EDGE_LOOP ( 'NONE', ( #44, #68, #274, #42 ) ) ;
#4 =( GEOMETRIC_REPRESENTATION_CONTEXT ( 3 ) GLOBAL_UNCERTAINTY_ASSIGNED_CONTEXT ( ( #133 ) ) GLOBAL_UNIT_ASSIGNED_CONTEXT ( ( #268, #163, #321 ) ) REPRESENTATION_CONTEXT ( 'NONE', 'WORKASPACE' ) );
#5 = ADVANCED_FACE ( 'NONE', ( #227 ), #281, .F. ) ;
#6 = LINE ( 'NONE', #190, #264 ) ;
#7 = PERSON_AND_ORGANIZATION ( #2, #295 ) ;
#8 = FACE_OUTER_BOUND ( 'NONE', #240, .T. ) ;
#9 = CIRCLE ( 'NONE', #199, 2.899999999999990141 ) ;
#10 = VECTOR ( 'NONE', #253, 1000.000000000000114 ) ;
#11 = CC_DESIGN_SECURITY_CLASSIFICATION ( #152, ( #134 ) ) ;
#12 = ADVANCED_FACE ( 'NONE', ( #235 ), #154, .T. ) ;
#13 = APPLICATION_CONTEXT ( 'configuration controlled 3d designs of mechanical parts and assemblies' ) ;
#14 = VERTEX_POINT ( 'NONE', #147 ) ;
#15 = DESIGN_CONTEXT ( 'detailed design', #121, 'design' ) ;
#16 = ADVANCED_FACE ( 'NONE', ( #8 ), #286, .T. ) ;
#17 = AXIS2_PLACEMENT_3D ( 'NONE', #279, #251, #28 ) ;
#18 = PRODUCT_DEFINITION ( 'UNKNOWN', '', #134, #15 ) ;
#19 = ORIENTED_EDGE ( 'NONE', *, *, #156, .F. ) ;
#20 = DIRECTION ( 'NONE',  ( 1.000000000000000000, 0.0000000000000000000, 0.0000000000000000000 ) ) ;
#21 = APPROVAL_PERSON_ORGANIZATION ( #284, #106, #118 ) ;
#22 = EDGE_LOOP ( 'NONE', ( #162, #47, #93, #109 ) ) ;
#23 = ORIENTED_EDGE ( 'NONE', *, *, #272, .T. ) ;
#24 = EDGE_CURVE ( 'NONE', #14, #64, #180, .T. ) ;
#25 = FACE_OUTER_BOUND ( 'NONE', #188, .T. ) ;
#26 = ORIENTED_EDGE ( 'NONE', *, *, #85, .T. ) ;
#27 = CARTESIAN_POINT ( 'NONE',  ( 3.247077645124113894E-13, -1.138921523207038456E-14, 93.00000000000000000 ) ) ;
#28 = DIRECTION ( 'NONE',  ( 5.312910191413093596E-31, 1.000000000000000000, 1.495451272393807431E-16 ) ) ;
#29 = VECTOR ( 'NONE', #334, 999.9999999999998863 ) ;
#30 = DIRECTION ( 'NONE',  ( -5.312910191413093596E-31, -1.000000000000000000, -1.495451272393807431E-16 ) ) ;
#31 = COORDINATED_UNIVERSAL_TIME_OFFSET ( 1, 0, .AHEAD. ) ;
#32 = LINE ( 'NONE', #204, #10 ) ;
#33 = COORDINATED_UNIVERSAL_TIME_OFFSET ( 1, 0, .AHEAD. ) ;
#34 = CARTESIAN_POINT ( 'NONE',  ( 0.0000000000000000000, 0.0000000000000000000, 0.0000000000000000000 ) ) ;
#35 = PERSON_AND_ORGANIZATION_ROLE ( 'creator' ) ;
#36 = VECTOR ( 'NONE', #256, 1000.000000000000000 ) ;
#37 = APPROVAL_ROLE ( '' ) ;
#38 = VERTEX_POINT ( 'NONE', #314 ) ;
#39 = EDGE_CURVE ( 'NONE', #332, #14, #167, .T. ) ;
#40 = CC_DESIGN_PERSON_AND_ORGANIZATION_ASSIGNMENT ( #149, #35, ( #134 ) ) ;
#41 = ORIENTED_EDGE ( 'NONE', *, *, #327, .T. ) ;
#42 = ORIENTED_EDGE ( 'NONE', *, *, #327, .F. ) ;
#43 = LOCAL_TIME ( 15, 22, 36.00000000000000000, #31 ) ;
#44 = ORIENTED_EDGE ( 'NONE', *, *, #306, .F. ) ;
#45 = CARTESIAN_POINT ( 'NONE',  ( 6.083891551883368392E-15, -2.133941898094828806E-16, 1.742495795179934692 ) ) ;
#46 = DATE_AND_TIME ( #276, #144 ) ;
#47 = ORIENTED_EDGE ( 'NONE', *, *, #24, .T. ) ;
#48 = PLANE ( 'NONE',  #290 ) ;
#49 = CARTESIAN_POINT ( 'NONE',  ( 3.226128757091054968E-13, -1.131573642412154441E-14, 92.39999999999999147 ) ) ;
#50 = ADVANCED_FACE ( 'NONE', ( #259 ), #91, .T. ) ;
#51 = DIRECTION ( 'NONE',  ( 3.491481338843133355E-15, -1.224646799147353207E-16, 1.000000000000000000 ) ) ;
#52 = AXIS2_PLACEMENT_3D ( 'NONE', #304, #76, #146 ) ;
#53 = CARTESIAN_POINT ( 'NONE',  ( 3.249894332762152979E-13, -2.300000000000006040, 93.00000000000000000 ) ) ;
#54 = DIRECTION ( 'NONE',  ( -3.491481338843133355E-15, 1.224646799147353207E-16, -1.000000000000000000 ) ) ;
#55 = DIRECTION ( 'NONE',  ( 0.0000000000000000000, 1.000000000000000000, 0.0000000000000000000 ) ) ;
#56 = SHAPE_DEFINITION_REPRESENTATION ( #122, #160 ) ;
#57 = CARTESIAN_POINT ( 'NONE',  ( 0.0000000000000000000, 0.0000000000000000000, 0.0000000000000000000 ) ) ;
#58 = FACE_OUTER_BOUND ( 'NONE', #22, .T. ) ;
#59 = VERTEX_POINT ( 'NONE', #104 ) ;
#60 = DIRECTION ( 'NONE',  ( 0.0000000000000000000, 0.0000000000000000000, 1.000000000000000000 ) ) ;
#61 = AXIS2_PLACEMENT_3D ( 'NONE', #234, #309, #151 ) ;
#62 = DIRECTION ( 'NONE',  ( 5.312910191413093596E-31, 1.000000000000000000, 1.495451272393807431E-16 ) ) ;
#63 = MECHANICAL_CONTEXT ( 'NONE', #13, 'mechanical' ) ;
#64 = VERTEX_POINT ( 'NONE', #208 ) ;
#65 = CIRCLE ( 'NONE', #273, 2.899999999999983924 ) ;
#66 = DIRECTION ( 'NONE',  ( 4.275831445896958607E-31, 1.000000000000000000, 1.224646799147353207E-16 ) ) ;
#67 = PERSON_AND_ORGANIZATION_ROLE ( 'classification_officer' ) ;
#68 = ORIENTED_EDGE ( 'NONE', *, *, #161, .T. ) ;
#69 = CARTESIAN_POINT ( 'NONE',  ( 1.990144363140586139E-13, -6.980486755139912911E-15, 57.00000000000000000 ) ) ;
#70 = CARTESIAN_POINT ( 'NONE',  ( 6.439039123636099691E-15, 2.899999999999983924, 1.742495795179935136 ) ) ;
#71 = DIRECTION ( 'NONE',  ( -4.275831445896958607E-31, -1.000000000000000000, -1.224646799147353207E-16 ) ) ;
#72 = PERSON_AND_ORGANIZATION ( #2, #295 ) ;
#73 = CYLINDRICAL_SURFACE ( 'NONE', #219, 2.899999999999986589 ) ;
#74 = LINE ( 'NONE', #53, #36 ) ;
#75 = APPROVAL_STATUS ( 'not_yet_approved' ) ;
#76 = DIRECTION ( 'NONE',  ( -3.491481338843133355E-15, 1.224646799147353207E-16, -1.000000000000000000 ) ) ;
#77 = APPROVAL_DATE_TIME ( #313, #318 ) ;
#78 = CARTESIAN_POINT ( 'NONE',  ( 0.0000000000000000000, 0.0000000000000000000, 0.0000000000000000000 ) ) ;
#79 = AXIS2_PLACEMENT_3D ( 'NONE', #120, #96, #175 ) ;
#80 = CARTESIAN_POINT ( 'NONE',  ( 1.990144363140586139E-13, 2.899999999999983480, 57.00000000000000000 ) ) ;
#81 = ADVANCED_FACE ( 'NONE', ( #315 ), #73, .T. ) ;
#82 = VECTOR ( 'NONE', #257, 1000.000000000000000 ) ;
#83 = AXIS2_PLACEMENT_3D ( 'NONE', #182, #209, #293 ) ;
#84 = CIRCLE ( 'NONE', #52, 2.899999999999990141 ) ;
#85 = EDGE_CURVE ( 'NONE', #303, #38, #129, .T. ) ;
#86 = COORDINATED_UNIVERSAL_TIME_OFFSET ( 1, 0, .AHEAD. ) ;
#87 = PRODUCT_RELATED_PRODUCT_CATEGORY ( 'detail', '', ( #174 ) ) ;
#88 = AXIS2_PLACEMENT_3D ( 'NONE', #78, #54, #307 ) ;
#89 = VERTEX_POINT ( 'NONE', #172 ) ;
#90 = AXIS2_PLACEMENT_3D ( 'NONE', #142, #145, #97 ) ;
#91 = CONICAL_SURFACE ( 'NONE', #61, 2.899999999999983924, 1.029744258676649649 ) ;
#92 = CC_DESIGN_DATE_AND_TIME_ASSIGNMENT ( #337, #101, ( #18 ) ) ;
#93 = ORIENTED_EDGE ( 'NONE', *, *, #272, .F. ) ;
#94 = DIRECTION ( 'NONE',  ( 0.0000000000000000000, 1.000000000000000000, 0.0000000000000000000 ) ) ;
#95 = CARTESIAN_POINT ( 'NONE',  ( 3.247077645124113894E-13, -1.138921523207038456E-14, 93.00000000000000000 ) ) ;
#96 = DIRECTION ( 'NONE',  ( -3.491481338843133355E-15, 1.224646799147353207E-16, -1.000000000000000000 ) ) ;
#97 = DIRECTION ( 'NONE',  ( 0.0000000000000000000, 1.000000000000000000, 0.0000000000000000000 ) ) ;
#98 = PERSON_AND_ORGANIZATION ( #2, #295 ) ;
#99 = ORIENTED_EDGE ( 'NONE', *, *, #185, .F. ) ;
#100 = FACE_OUTER_BOUND ( 'NONE', #110, .T. ) ;
#101 = DATE_TIME_ROLE ( 'creation_date' ) ;
#102 = AXIS2_PLACEMENT_3D ( 'NONE', #125, #301, #66 ) ;
#103 = CARTESIAN_POINT ( 'NONE',  ( 3.247077645124113894E-13, -1.138921523207038456E-14, 93.00000000000000000 ) ) ;
#104 = CARTESIAN_POINT ( 'NONE',  ( 1.990144363140586139E-13, 2.899999999999983480, 57.00000000000000000 ) ) ;
#105 = CARTESIAN_POINT ( 'NONE',  ( 3.247077645124113894E-13, 1.724723750061115448E-32, 93.00000000000000000 ) ) ;
#106 = APPROVAL ( #246, 'UNSPECIFIED' ) ;
#107 = EDGE_CURVE ( 'NONE', #215, #38, #210, .T. ) ;
#108 = CC_DESIGN_APPROVAL ( #318, ( #134 ) ) ;
#109 = ORIENTED_EDGE ( 'NONE', *, *, #255, .F. ) ;
#110 = EDGE_LOOP ( 'NONE', ( #218, #158, #291, #288 ) ) ;
#111 = ORIENTED_EDGE ( 'NONE', *, *, #207, .F. ) ;
#112 = ORIENTED_EDGE ( 'NONE', *, *, #107, .T. ) ;
#113 = EDGE_CURVE ( 'NONE', #270, #59, #335, .T. ) ;
#114 = CIRCLE ( 'NONE', #271, 2.299999999999994937 ) ;
#115 = DIRECTION ( 'NONE',  ( 1.798245827342160317E-15, -0.8571673007021098911, 0.5150380749100582634 ) ) ;
#116 = EDGE_LOOP ( 'NONE', ( #23, #289 ) ) ;
#117 = AXIS2_PLACEMENT_3D ( 'NONE', #173, #51, #250 ) ;
#118 = APPROVAL_ROLE ( '' ) ;
#119 = LINE ( 'NONE', #333, #186 ) ;
#120 = CARTESIAN_POINT ( 'NONE',  ( 1.990144363140586139E-13, -6.980486755139912911E-15, 57.00000000000000000 ) ) ;
#121 = APPLICATION_CONTEXT ( 'configuration controlled 3d designs of mechanical parts and assemblies' ) ;
#122 = PRODUCT_DEFINITION_SHAPE ( 'NONE', 'NONE',  #18 ) ;
#123 = DIRECTION ( 'NONE',  ( -3.491481338843133355E-15, 1.224646799147353207E-16, -1.000000000000000000 ) ) ;
#124 = CALENDAR_DATE ( 2021, 2, 9 ) ;
#125 = CARTESIAN_POINT ( 'NONE',  ( 0.0000000000000000000, 0.0000000000000000000, 0.0000000000000000000 ) ) ;
#126 = PERSON_AND_ORGANIZATION_ROLE ( 'design_supplier' ) ;
#127 = CIRCLE ( 'NONE', #157, 2.899999999999994582 ) ;
#128 = EDGE_LOOP ( 'NONE', ( #111, #164 ) ) ;
#129 = LINE ( 'NONE', #70, #29 ) ;
#130 = CC_DESIGN_PERSON_AND_ORGANIZATION_ASSIGNMENT ( #191, #126, ( #134 ) ) ;
#131 = VECTOR ( 'NONE', #115, 1000.000000000000000 ) ;
#132 = ADVANCED_FACE ( 'NONE', ( #58 ), #317, .T. ) ;
#133 = UNCERTAINTY_MEASURE_WITH_UNIT (LENGTH_MEASURE( 1.000000000000000082E-05 ), #268, 'distance_accuracy_value', 'NONE');
#134 = PRODUCT_DEFINITION_FORMATION_WITH_SPECIFIED_SOURCE ( 'ANY', '', #174, .NOT_KNOWN. ) ;
#135 = CLOSED_SHELL ( 'NONE', ( #12, #132, #150, #16, #300, #5 ) ) ;
#136 = VECTOR ( 'NONE', #123, 1000.000000000000000 ) ;
#137 = VERTEX_POINT ( 'NONE', #80 ) ;
#138 = APPLICATION_PROTOCOL_DEFINITION ( 'international standard', 'config_control_design', 1994, #121 ) ;
#139 = DIRECTION ( 'NONE',  ( 3.491481338843133355E-15, -1.224646799147353207E-16, 1.000000000000000000 ) ) ;
#140 = CC_DESIGN_DATE_AND_TIME_ASSIGNMENT ( #46, #319, ( #152 ) ) ;
#141 = AXIS2_PLACEMENT_3D ( 'NONE', #95, #231, #312 ) ;
#142 = CARTESIAN_POINT ( 'NONE',  ( 1.990144363140586139E-13, -6.980486755139912911E-15, 57.00000000000000000 ) ) ;
#143 = DIRECTION ( 'NONE',  ( -3.491481338843133355E-15, 1.224646799147353207E-16, -1.000000000000000000 ) ) ;
#144 = LOCAL_TIME ( 15, 22, 36.00000000000000000, #169 ) ;
#145 = DIRECTION ( 'NONE',  ( -3.491481338843133355E-15, 1.224646799147353207E-16, -1.000000000000000000 ) ) ;
#146 = DIRECTION ( 'NONE',  ( 0.0000000000000000000, 1.000000000000000000, 0.0000000000000000000 ) ) ;
#147 = CARTESIAN_POINT ( 'NONE',  ( 2.611688035833346509E-13, -2.900000000000005684, 92.39999999999999147 ) ) ;
#148 = CARTESIAN_POINT ( 'NONE',  ( 1.029043115047234771E-13, -2.899999999999997247, 57.00000000000000000 ) ) ;
#149 = PERSON_AND_ORGANIZATION ( #2, #295 ) ;
#150 = ADVANCED_FACE ( 'NONE', ( #228 ), #177, .F. ) ;
#151 = DIRECTION ( 'NONE',  ( -5.312910191413093596E-31, -1.000000000000000000, -1.495451272393807431E-16 ) ) ;
#152 = SECURITY_CLASSIFICATION ( '', '', #233 ) ;
#153 = DIRECTION ( 'NONE',  ( -3.491481338843133355E-15, 1.224646799147353207E-16, -1.000000000000000000 ) ) ;
#154 = CONICAL_SURFACE ( 'NONE', #329, 2.299999999999994937, 0.7853981633974453924 ) ;
#155 = CC_DESIGN_PERSON_AND_ORGANIZATION_ASSIGNMENT ( #72, #194, ( #18 ) ) ;
#156 = EDGE_CURVE ( 'NONE', #170, #332, #32, .T. ) ;
#157 = AXIS2_PLACEMENT_3D ( 'NONE', #222, #331, #212 ) ;
#158 = ORIENTED_EDGE ( 'NONE', *, *, #113, .T. ) ;
#159 = PERSON_AND_ORGANIZATION ( #2, #295 ) ;
#160 = ADVANCED_BREP_SHAPE_REPRESENTATION ( '40864', ( #322, #211, #252 ), #4 ) ;
#161 = EDGE_CURVE ( 'NONE', #89, #170, #305, .T. ) ;
#162 = ORIENTED_EDGE ( 'NONE', *, *, #39, .T. ) ;
#163 =( NAMED_UNIT ( * ) PLANE_ANGLE_UNIT ( ) SI_UNIT ( $, .RADIAN. ) );
#164 = ORIENTED_EDGE ( 'NONE', *, *, #161, .F. ) ;
#165 = ORIENTED_EDGE ( 'NONE', *, *, #320, .F. ) ;
#166 = LOCAL_TIME ( 15, 22, 36.00000000000000000, #86 ) ;
#167 = CIRCLE ( 'NONE', #224, 2.899999999999994582 ) ;
#168 = LINE ( 'NONE', #275, #131 ) ;
#169 = COORDINATED_UNIVERSAL_TIME_OFFSET ( 1, 0, .AHEAD. ) ;
#170 = VERTEX_POINT ( 'NONE', #308 ) ;
#171 = DIRECTION ( 'NONE',  ( -3.491481338843133355E-15, 1.224646799147353207E-16, -1.000000000000000000 ) ) ;
#172 = CARTESIAN_POINT ( 'NONE',  ( 3.239787282785367393E-13, -2.300000000000006040, 93.00000000000000000 ) ) ;
#173 = CARTESIAN_POINT ( 'NONE',  ( 1.990144363140586139E-13, 2.174651684859675741E-32, 57.00000000000000000 ) ) ;
#174 = PRODUCT ( '40864', '40864', '', ( #63 ) ) ;
#175 = DIRECTION ( 'NONE',  ( 0.0000000000000000000, 1.000000000000000000, 0.0000000000000000000 ) ) ;
#176 = AXIS2_PLACEMENT_3D ( 'NONE', #197, #285, #310 ) ;
#177 = PLANE ( 'NONE',  #117 ) ;
#178 = DIRECTION ( 'NONE',  ( -3.491481338843133355E-15, 1.224646799147353207E-16, -1.000000000000000000 ) ) ;
#179 = DIRECTION ( 'NONE',  ( -3.491481338843133355E-15, 1.224646799147353207E-16, -1.000000000000000000 ) ) ;
#180 = LINE ( 'NONE', #206, #82 ) ;
#181 = CC_DESIGN_APPROVAL ( #241, ( #152 ) ) ;
#182 = CARTESIAN_POINT ( 'NONE',  ( 0.0000000000000000000, 0.0000000000000000000, 0.0000000000000000000 ) ) ;
#183 = ORIENTED_EDGE ( 'NONE', *, *, #24, .F. ) ;
#184 = AXIS2_PLACEMENT_3D ( 'NONE', #105, #178, #201 ) ;
#185 = EDGE_CURVE ( 'NONE', #64, #137, #9, .T. ) ;
#186 = VECTOR ( 'NONE', #200, 1000.000000000000000 ) ;
#187 = CARTESIAN_POINT ( 'NONE',  ( 6.083891551883368392E-15, -2.133941898094828806E-16, 1.742495795179934692 ) ) ;
#188 = EDGE_LOOP ( 'NONE', ( #189, #221 ) ) ;
#189 = ORIENTED_EDGE ( 'NONE', *, *, #216, .F. ) ;
#190 = CARTESIAN_POINT ( 'NONE',  ( 1.239991119310112373E-30, 2.899999999999986589, 3.551475717527308055E-16 ) ) ;
#191 = PERSON_AND_ORGANIZATION ( #2, #295 ) ;
#192 = ORIENTED_EDGE ( 'NONE', *, *, #320, .T. ) ;
#193 = DIRECTION ( 'NONE',  ( 3.491481338843133355E-15, -1.224646799147353207E-16, 1.000000000000000000 ) ) ;
#194 = PERSON_AND_ORGANIZATION_ROLE ( 'creator' ) ;
#195 = EDGE_LOOP ( 'NONE', ( #165, #26, #277 ) ) ;
#196 = PERSON_AND_ORGANIZATION_ROLE ( 'design_owner' ) ;
#197 = CARTESIAN_POINT ( 'NONE',  ( 3.247077645124113894E-13, -1.138921523207038456E-14, 93.00000000000000000 ) ) ;
#198 = APPROVAL_DATE_TIME ( #226, #106 ) ;
#199 = AXIS2_PLACEMENT_3D ( 'NONE', #69, #232, #94 ) ;
#200 = DIRECTION ( 'NONE',  ( -3.491481338843133355E-15, 1.224646799147353207E-16, -1.000000000000000000 ) ) ;
#201 = DIRECTION ( 'NONE',  ( 4.275831445896958607E-31, 1.000000000000000000, 1.224646799147353207E-16 ) ) ;
#202 = LOCAL_TIME ( 15, 22, 36.00000000000000000, #220 ) ;
#203 = PERSON_AND_ORGANIZATION ( #2, #295 ) ;
#204 = CARTESIAN_POINT ( 'NONE',  ( 3.247077645124113894E-13, 2.299999999999983391, 93.00000000000000000 ) ) ;
#205 = APPROVAL_ROLE ( '' ) ;
#206 = CARTESIAN_POINT ( 'NONE',  ( 3.551475717527302632E-16, -2.899999999999992362, -3.551475717527327284E-16 ) ) ;
#207 = EDGE_CURVE ( 'NONE', #170, #89, #114, .T. ) ;
#208 = CARTESIAN_POINT ( 'NONE',  ( 2.611688035833347519E-13, -2.899999999999997247, 57.00000000000000000 ) ) ;
#209 = DIRECTION ( 'NONE',  ( -3.491481338843133355E-15, 1.224646799147353207E-16, -1.000000000000000000 ) ) ;
#210 = CIRCLE ( 'NONE', #17, 2.899999999999983924 ) ;
#211 = MANIFOLD_SOLID_BREP ( 'Corps-Déplacer/Copier1[2]', #249 ) ;
#212 = DIRECTION ( 'NONE',  ( 0.0000000000000000000, 1.000000000000000000, 0.0000000000000000000 ) ) ;
#213 = CIRCLE ( 'NONE', #90, 2.899999999999990141 ) ;
#214 = ADVANCED_FACE ( 'NONE', ( #280 ), #297, .T. ) ;
#215 = VERTEX_POINT ( 'NONE', #278 ) ;
#216 = EDGE_CURVE ( 'NONE', #59, #270, #84, .T. ) ;
#217 = LOCAL_TIME ( 15, 22, 36.00000000000000000, #33 ) ;
#218 = ORIENTED_EDGE ( 'NONE', *, *, #294, .F. ) ;
#219 = AXIS2_PLACEMENT_3D ( 'NONE', #57, #153, #261 ) ;
#220 = COORDINATED_UNIVERSAL_TIME_OFFSET ( 1, 0, .AHEAD. ) ;
#221 = ORIENTED_EDGE ( 'NONE', *, *, #113, .F. ) ;
#222 = CARTESIAN_POINT ( 'NONE',  ( 3.226128757091054968E-13, -1.131573642412154441E-14, 92.39999999999999147 ) ) ;
#223 = ORIENTED_EDGE ( 'NONE', *, *, #283, .F. ) ;
#224 = AXIS2_PLACEMENT_3D ( 'NONE', #49, #143, #55 ) ;
#225 = LINE ( 'NONE', #1, #136 ) ;
#226 = DATE_AND_TIME ( #243, #202 ) ;
#227 = FACE_OUTER_BOUND ( 'NONE', #128, .T. ) ;
#228 = FACE_OUTER_BOUND ( 'NONE', #116, .T. ) ;
#229 = CALENDAR_DATE ( 2021, 2, 9 ) ;
#230 = CC_DESIGN_PERSON_AND_ORGANIZATION_ASSIGNMENT ( #7, #67, ( #152 ) ) ;
#231 = DIRECTION ( 'NONE',  ( -3.491481338843133355E-15, 1.224646799147353207E-16, -1.000000000000000000 ) ) ;
#232 = DIRECTION ( 'NONE',  ( -3.491481338843133355E-15, 1.224646799147353207E-16, -1.000000000000000000 ) ) ;
#233 = SECURITY_CLASSIFICATION_LEVEL ( 'unclassified' ) ;
#234 = CARTESIAN_POINT ( 'NONE',  ( 6.083891551883368392E-15, -2.133941898094828806E-16, 1.742495795179934692 ) ) ;
#235 = FACE_OUTER_BOUND ( 'NONE', #244, .T. ) ;
#236 = DATE_AND_TIME ( #292, #166 ) ;
#237 = AXIS2_PLACEMENT_3D ( 'NONE', #45, #193, #30 ) ;
#238 = APPROVAL_DATE_TIME ( #236, #241 ) ;
#239 = ORIENTED_EDGE ( 'NONE', *, *, #216, .T. ) ;
#240 = EDGE_LOOP ( 'NONE', ( #183, #41, #324, #99 ) ) ;
#241 = APPROVAL ( #265, 'UNSPECIFIED' ) ;
#242 = APPLICATION_PROTOCOL_DEFINITION ( 'international standard', 'config_control_design', 1994, #13 ) ;
#243 = CALENDAR_DATE ( 2021, 2, 9 ) ;
#244 = EDGE_LOOP ( 'NONE', ( #266, #263, #299, #19 ) ) ;
#245 = EDGE_LOOP ( 'NONE', ( #298, #192, #112 ) ) ;
#246 = APPROVAL_STATUS ( 'not_yet_approved' ) ;
#247 = DIRECTION ( 'NONE',  ( 0.0000000000000000000, 1.000000000000000000, 0.0000000000000000000 ) ) ;
#248 = ORIENTED_EDGE ( 'NONE', *, *, #294, .T. ) ;
#249 = CLOSED_SHELL ( 'NONE', ( #81, #50, #214, #316, #262 ) ) ;
#250 = DIRECTION ( 'NONE',  ( -4.275831445896958607E-31, -1.000000000000000000, -1.224646799147353207E-16 ) ) ;
#251 = DIRECTION ( 'NONE',  ( -3.491481338843133355E-15, 1.224646799147353207E-16, -1.000000000000000000 ) ) ;
#252 = AXIS2_PLACEMENT_3D ( 'NONE', #323, #60, #20 ) ;
#253 = DIRECTION ( 'NONE',  ( -2.468850131082271655E-15, 0.7071067811865455743, -0.7071067811865493491 ) ) ;
#254 = DIRECTION ( 'NONE',  ( 0.0000000000000000000, 1.000000000000000000, 0.0000000000000000000 ) ) ;
#255 = EDGE_CURVE ( 'NONE', #332, #137, #225, .T. ) ;
#256 = DIRECTION ( 'NONE',  ( -2.382254525458723780E-15, -0.7071067811865453523, -0.7071067811865496822 ) ) ;
#257 = DIRECTION ( 'NONE',  ( -3.491481338843133355E-15, 1.224646799147353207E-16, -1.000000000000000000 ) ) ;
#258 = FACE_OUTER_BOUND ( 'NONE', #3, .T. ) ;
#259 = FACE_OUTER_BOUND ( 'NONE', #195, .T. ) ;
#260 = APPROVAL_PERSON_ORGANIZATION ( #98, #318, #205 ) ;
#261 = DIRECTION ( 'NONE',  ( 4.275831445896958607E-31, 1.000000000000000000, 1.224646799147353207E-16 ) ) ;
#262 = ADVANCED_FACE ( 'NONE', ( #25 ), #48, .T. ) ;
#263 = ORIENTED_EDGE ( 'NONE', *, *, #306, .T. ) ;
#264 = VECTOR ( 'NONE', #179, 1000.000000000000000 ) ;
#265 = APPROVAL_STATUS ( 'not_yet_approved' ) ;
#266 = ORIENTED_EDGE ( 'NONE', *, *, #207, .T. ) ;
#267 = CC_DESIGN_PERSON_AND_ORGANIZATION_ASSIGNMENT ( #203, #196, ( #174 ) ) ;
#268 =( LENGTH_UNIT ( ) NAMED_UNIT ( * ) SI_UNIT ( .MILLI., .METRE. ) );
#269 = CARTESIAN_POINT ( 'NONE',  ( 3.226128757091054968E-13, 2.899999999999983480, 92.39999999999999147 ) ) ;
#270 = VERTEX_POINT ( 'NONE', #148 ) ;
#271 = AXIS2_PLACEMENT_3D ( 'NONE', #27, #171, #247 ) ;
#272 = EDGE_CURVE ( 'NONE', #137, #64, #213, .T. ) ;
#273 = AXIS2_PLACEMENT_3D ( 'NONE', #187, #296, #62 ) ;
#274 = ORIENTED_EDGE ( 'NONE', *, *, #156, .T. ) ;
#275 = CARTESIAN_POINT ( 'NONE',  ( 6.083891551883366814E-15, -2.899999999999983924, 1.742495795179934248 ) ) ;
#276 = CALENDAR_DATE ( 2021, 2, 9 ) ;
#277 = ORIENTED_EDGE ( 'NONE', *, *, #328, .T. ) ;
#278 = CARTESIAN_POINT ( 'NONE',  ( 6.083891551883366814E-15, -2.899999999999983924, 1.742495795179934248 ) ) ;
#279 = CARTESIAN_POINT ( 'NONE',  ( 6.083891551883368392E-15, -2.133941898094828806E-16, 1.742495795179934692 ) ) ;
#280 = FACE_OUTER_BOUND ( 'NONE', #245, .T. ) ;
#281 = PLANE ( 'NONE',  #184 ) ;
#282 = CONICAL_SURFACE ( 'NONE', #176, 2.299999999999994937, 0.7853981633974453924 ) ;
#283 = EDGE_CURVE ( 'NONE', #59, #38, #6, .T. ) ;
#284 = PERSON_AND_ORGANIZATION ( #2, #295 ) ;
#285 = DIRECTION ( 'NONE',  ( -3.491481338843133355E-15, 1.224646799147353207E-16, -1.000000000000000000 ) ) ;
#286 = CYLINDRICAL_SURFACE ( 'NONE', #88, 2.899999999999992362 ) ;
#287 = CYLINDRICAL_SURFACE ( 'NONE', #102, 2.899999999999986589 ) ;
#288 = ORIENTED_EDGE ( 'NONE', *, *, #107, .F. ) ;
#289 = ORIENTED_EDGE ( 'NONE', *, *, #185, .T. ) ;
#290 = AXIS2_PLACEMENT_3D ( 'NONE', #336, #139, #71 ) ;
#291 = ORIENTED_EDGE ( 'NONE', *, *, #283, .T. ) ;
#292 = CALENDAR_DATE ( 2021, 2, 9 ) ;
#293 = DIRECTION ( 'NONE',  ( 4.275831445896958607E-31, 1.000000000000000000, 1.224646799147353207E-16 ) ) ;
#294 = EDGE_CURVE ( 'NONE', #270, #215, #119, .T. ) ;
#295 = ORGANIZATION ( 'UNSPECIFIED', 'UNSPECIFIED', '' ) ;
#296 = DIRECTION ( 'NONE',  ( -3.491481338843133355E-15, 1.224646799147353207E-16, -1.000000000000000000 ) ) ;
#297 = CONICAL_SURFACE ( 'NONE', #237, 2.899999999999983924, 1.029744258676649649 ) ;
#298 = ORIENTED_EDGE ( 'NONE', *, *, #85, .F. ) ;
#299 = ORIENTED_EDGE ( 'NONE', *, *, #39, .F. ) ;
#300 = ADVANCED_FACE ( 'NONE', ( #258 ), #282, .T. ) ;
#301 = DIRECTION ( 'NONE',  ( -3.491481338843133355E-15, 1.224646799147353207E-16, -1.000000000000000000 ) ) ;
#302 = APPROVAL_PERSON_ORGANIZATION ( #159, #241, #37 ) ;
#303 = VERTEX_POINT ( 'NONE', #34 ) ;
#304 = CARTESIAN_POINT ( 'NONE',  ( 1.990144363140586139E-13, -6.980486755139912911E-15, 57.00000000000000000 ) ) ;
#305 = CIRCLE ( 'NONE', #141, 2.299999999999994937 ) ;
#306 = EDGE_CURVE ( 'NONE', #89, #14, #74, .T. ) ;
#307 = DIRECTION ( 'NONE',  ( 4.275831445896958607E-31, 1.000000000000000000, 1.224646799147353207E-16 ) ) ;
#308 = CARTESIAN_POINT ( 'NONE',  ( 3.247077645124113894E-13, 2.299999999999983391, 93.00000000000000000 ) ) ;
#309 = DIRECTION ( 'NONE',  ( 3.491481338843133355E-15, -1.224646799147353207E-16, 1.000000000000000000 ) ) ;
#310 = DIRECTION ( 'NONE',  ( 0.0000000000000000000, 1.000000000000000000, 0.0000000000000000000 ) ) ;
#311 = DIRECTION ( 'NONE',  ( -3.491481338843133355E-15, 1.224646799147353207E-16, -1.000000000000000000 ) ) ;
#312 = DIRECTION ( 'NONE',  ( 0.0000000000000000000, 1.000000000000000000, 0.0000000000000000000 ) ) ;
#313 = DATE_AND_TIME ( #124, #217 ) ;
#314 = CARTESIAN_POINT ( 'NONE',  ( 6.439039123636099691E-15, 2.899999999999983924, 1.742495795179935136 ) ) ;
#315 = FACE_OUTER_BOUND ( 'NONE', #330, .T. ) ;
#316 = ADVANCED_FACE ( 'NONE', ( #100 ), #287, .T. ) ;
#317 = CYLINDRICAL_SURFACE ( 'NONE', #83, 2.899999999999992362 ) ;
#318 = APPROVAL ( #75, 'UNSPECIFIED' ) ;
#319 = DATE_TIME_ROLE ( 'classification_date' ) ;
#320 = EDGE_CURVE ( 'NONE', #303, #215, #168, .T. ) ;
#321 =( NAMED_UNIT ( * ) SI_UNIT ( $, .STERADIAN. ) SOLID_ANGLE_UNIT ( ) );
#322 = MANIFOLD_SOLID_BREP ( 'Corps-Déplacer/Copier1[1]', #135 ) ;
#323 = CARTESIAN_POINT ( 'NONE',  ( 0.0000000000000000000, 0.0000000000000000000, 0.0000000000000000000 ) ) ;
#324 = ORIENTED_EDGE ( 'NONE', *, *, #255, .T. ) ;
#325 = CC_DESIGN_APPROVAL ( #106, ( #18 ) ) ;
#326 = ORIENTED_EDGE ( 'NONE', *, *, #328, .F. ) ;
#327 = EDGE_CURVE ( 'NONE', #14, #332, #127, .T. ) ;
#328 = EDGE_CURVE ( 'NONE', #38, #215, #65, .T. ) ;
#329 = AXIS2_PLACEMENT_3D ( 'NONE', #103, #311, #254 ) ;
#330 = EDGE_LOOP ( 'NONE', ( #239, #248, #326, #223 ) ) ;
#331 = DIRECTION ( 'NONE',  ( -3.491481338843133355E-15, 1.224646799147353207E-16, -1.000000000000000000 ) ) ;
#332 = VERTEX_POINT ( 'NONE', #269 ) ;
#333 = CARTESIAN_POINT ( 'NONE',  ( 3.551475717527296222E-16, -2.899999999999986589, -3.551475717527320381E-16 ) ) ;
#334 = DIRECTION ( 'NONE',  ( 1.903218546456022717E-15, 0.8571673007021097801, 0.5150380749100585964 ) ) ;
#335 = CIRCLE ( 'NONE', #79, 2.899999999999990141 ) ;
#336 = CARTESIAN_POINT ( 'NONE',  ( 1.990144363140586139E-13, 2.174651684859675741E-32, 57.00000000000000000 ) ) ;
#337 = DATE_AND_TIME ( #229, #43 ) ;
ENDSEC;
END-ISO-10303-21;
