ISO-10303-21;
HEADER;
FILE_DESCRIPTION (( 'STEP AP203' ),
    '1' );
FILE_NAME ('40848.step',
    '2021-11-01T10:35:08',
    ( '' ),
    ( '' ),
    'SwSTEP 2.0',
    'SolidWorks 2019',
    '' );
FILE_SCHEMA (( 'CONFIG_CONTROL_DESIGN' ));
ENDSEC;

DATA;
#1 = FACE_OUTER_BOUND ( 'NONE', #121, .T. ) ;
#2 = CC_DESIGN_APPROVAL ( #150, ( #76 ) ) ;
#3 = APPROVAL_ROLE ( '' ) ;
#4 = DIRECTION ( 'NONE',  ( 3.491481338843133355E-15, -1.224646799147353207E-16, 1.000000000000000000 ) ) ;
#5 = FACE_BOUND ( 'NONE', #20, .T. ) ;
#6 = DIRECTION ( 'NONE',  ( -4.347792104868795754E-31, -1.000000000000000000, -1.227517819005651059E-16 ) ) ;
#7 = PRODUCT_DEFINITION_FORMATION_WITH_SPECIFIED_SOURCE ( 'ANY', '', #151, .NOT_KNOWN. ) ;
#8 = DIRECTION ( 'NONE',  ( -3.491481338843133355E-15, 1.224646799147353207E-16, -1.000000000000000000 ) ) ;
#9 = CARTESIAN_POINT ( 'NONE',  ( 2.444036937190193033E-14, 1.124819836996384448E-32, 6.999999999999999112 ) ) ;
#10 = PERSON_AND_ORGANIZATION_ROLE ( 'classification_officer' ) ;
#11 = AXIS2_PLACEMENT_3D ( 'NONE', #28, #165, #38 ) ;
#12 = APPROVAL_DATE_TIME ( #184, #150 ) ;
#13 =( NAMED_UNIT ( * ) SI_UNIT ( $, .STERADIAN. ) SOLID_ANGLE_UNIT ( ) );
#14 = APPROVAL_ROLE ( '' ) ;
#15 = CC_DESIGN_PERSON_AND_ORGANIZATION_ASSIGNMENT ( #58, #10, ( #132 ) ) ;
#16 = PRODUCT_DEFINITION_SHAPE ( 'NONE', 'NONE',  #76 ) ;
#17 = ORIENTED_EDGE ( 'NONE', *, *, #117, .T. ) ;
#18 =( GEOMETRIC_REPRESENTATION_CONTEXT ( 3 ) GLOBAL_UNCERTAINTY_ASSIGNED_CONTEXT ( ( #174 ) ) GLOBAL_UNIT_ASSIGNED_CONTEXT ( ( #200, #166, #13 ) ) REPRESENTATION_CONTEXT ( 'NONE', 'WORKASPACE' ) );
#19 = CARTESIAN_POINT ( 'NONE',  ( 1.326762908760390423E-13, -4.653657836759941941E-15, 38.00000000000000000 ) ) ;
#20 = EDGE_LOOP ( 'NONE', ( #206 ) ) ;
#21 = COORDINATED_UNIVERSAL_TIME_OFFSET ( 1, 0, .AHEAD. ) ;
#22 = EDGE_CURVE ( 'NONE', #210, #210, #222, .T. ) ;
#23 = DIRECTION ( 'NONE',  ( -4.275831445896958607E-31, -1.000000000000000000, -1.224646799147353207E-16 ) ) ;
#24 = AXIS2_PLACEMENT_3D ( 'NONE', #189, #194, #197 ) ;
#25 = CARTESIAN_POINT ( 'NONE',  ( 1.326762908760390423E-13, 8.998558695971030697E-33, 38.00000000000000000 ) ) ;
#26 = CARTESIAN_POINT ( 'NONE',  ( 2.444036937190193033E-14, -1.149999999999996581, 6.999999999999999112 ) ) ;
#27 = DIRECTION ( 'NONE',  ( 0.0000000000000000000, -1.000000000000000000, 0.0000000000000000000 ) ) ;
#28 = CARTESIAN_POINT ( 'NONE',  ( 1.326762908760390423E-13, -4.653657836759941941E-15, 38.00000000000000000 ) ) ;
#29 = DATE_AND_TIME ( #185, #159 ) ;
#30 = ADVANCED_BREP_SHAPE_REPRESENTATION ( '40848', ( #138, #221, #130 ), #18 ) ;
#31 = APPROVAL_ROLE ( '' ) ;
#32 = APPROVAL_PERSON_ORGANIZATION ( #204, #220, #3 ) ;
#33 = EDGE_LOOP ( 'NONE', ( #155 ) ) ;
#34 = CC_DESIGN_DATE_AND_TIME_ASSIGNMENT ( #29, #100, ( #132 ) ) ;
#35 = DIRECTION ( 'NONE',  ( 3.491481338843133355E-15, -1.227517819005651059E-16, 1.000000000000000000 ) ) ;
#36 = FACE_OUTER_BOUND ( 'NONE', #119, .T. ) ;
#37 = APPROVAL_PERSON_ORGANIZATION ( #187, #150, #31 ) ;
#38 = DIRECTION ( 'NONE',  ( 0.0000000000000000000, 1.000000000000000000, 0.0000000000000000000 ) ) ;
#39 = FACE_OUTER_BOUND ( 'NONE', #67, .T. ) ;
#40 = ADVANCED_FACE ( 'NONE', ( #1, #172 ), #49, .T. ) ;
#41 = FACE_OUTER_BOUND ( 'NONE', #86, .T. ) ;
#42 = DESIGN_CONTEXT ( 'detailed design', #217, 'design' ) ;
#43 = CALENDAR_DATE ( 2021, 1, 11 ) ;
#44 = EDGE_CURVE ( 'NONE', #126, #126, #125, .T. ) ;
#45 = PERSON_AND_ORGANIZATION_ROLE ( 'creator' ) ;
#46 = CONICAL_SURFACE ( 'NONE', #11, 1.199999999999993738, 0.7853981633974453924 ) ;
#47 = APPLICATION_PROTOCOL_DEFINITION ( 'international standard', 'config_control_design', 1994, #192 ) ;
#48 = APPROVAL ( #112, 'UNSPECIFIED' ) ;
#49 = CYLINDRICAL_SURFACE ( 'NONE', #24, 1.149999999999997025 ) ;
#50 = EDGE_LOOP ( 'NONE', ( #17 ) ) ;
#51 = ADVANCED_FACE ( 'NONE', ( #198, #41 ), #128, .T. ) ;
#52 = FACE_OUTER_BOUND ( 'NONE', #89, .T. ) ;
#53 = DIRECTION ( 'NONE',  ( -4.285855558155654155E-31, -1.000000000000000000, -1.227517819005651305E-16 ) ) ;
#54 = CARTESIAN_POINT ( 'NONE',  ( 1.326762908760390423E-13, 1.199999999999989297, 38.00000000000000000 ) ) ;
#55 = LOCAL_TIME ( 11, 35, 8.000000000000000000, #21 ) ;
#56 = VERTEX_POINT ( 'NONE', #127 ) ;
#57 = DIRECTION ( 'NONE',  ( 3.491481338843133355E-15, -1.227517819005651059E-16, 1.000000000000000000 ) ) ;
#58 = PERSON_AND_ORGANIZATION ( #202, #134 ) ;
#59 = AXIS2_PLACEMENT_3D ( 'NONE', #195, #110, #109 ) ;
#60 = APPLICATION_PROTOCOL_DEFINITION ( 'international standard', 'config_control_design', 1994, #217 ) ;
#61 = DATE_AND_TIME ( #133, #90 ) ;
#62 = APPROVAL_PERSON_ORGANIZATION ( #103, #48, #14 ) ;
#63 = COORDINATED_UNIVERSAL_TIME_OFFSET ( 1, 0, .AHEAD. ) ;
#64 = CALENDAR_DATE ( 2021, 1, 11 ) ;
#65 = ORIENTED_EDGE ( 'NONE', *, *, #123, .T. ) ;
#66 = AXIS2_PLACEMENT_3D ( 'NONE', #71, #4, #177 ) ;
#67 = EDGE_LOOP ( 'NONE', ( #135 ) ) ;
#68 = DIRECTION ( 'NONE',  ( 0.0000000000000000000, 1.000000000000000000, 0.0000000000000000000 ) ) ;
#69 = AXIS2_PLACEMENT_3D ( 'NONE', #70, #139, #53 ) ;
#70 = CARTESIAN_POINT ( 'NONE',  ( -4.928733891878995666E-31, -5.220882699138854046E-33, -1.411645491856496721E-16 ) ) ;
#71 = CARTESIAN_POINT ( 'NONE',  ( -1.282754905350004587E-30, 4.499298539707956128E-32, -3.673956068672651857E-16 ) ) ;
#72 = VERTEX_POINT ( 'NONE', #142 ) ;
#73 = LOCAL_TIME ( 11, 35, 8.000000000000000000, #131 ) ;
#74 = PLANE ( 'NONE',  #82 ) ;
#75 = CARTESIAN_POINT ( 'NONE',  ( 2.444036937190193033E-14, -8.592624733039555931E-16, 6.999999999999999112 ) ) ;
#76 = PRODUCT_DEFINITION ( 'UNKNOWN', '', #7, #42 ) ;
#77 = CARTESIAN_POINT ( 'NONE',  ( 0.0000000000000000000, 0.0000000000000000000, 0.0000000000000000000 ) ) ;
#78 = DIRECTION ( 'NONE',  ( 1.000000000000000000, 0.0000000000000000000, 0.0000000000000000000 ) ) ;
#79 = DATE_AND_TIME ( #219, #154 ) ;
#80 = PRODUCT_RELATED_PRODUCT_CATEGORY ( 'detail', '', ( #151 ) ) ;
#81 = DIRECTION ( 'NONE',  ( 0.0000000000000000000, 0.0000000000000000000, 1.000000000000000000 ) ) ;
#82 = AXIS2_PLACEMENT_3D ( 'NONE', #25, #209, #124 ) ;
#83 = APPROVAL_STATUS ( 'not_yet_approved' ) ;
#84 = ORIENTED_EDGE ( 'NONE', *, *, #44, .T. ) ;
#85 = CIRCLE ( 'NONE', #168, 1.499999999999991784 ) ;
#86 = EDGE_LOOP ( 'NONE', ( #104 ) ) ;
#87 = EDGE_LOOP ( 'NONE', ( #152 ) ) ;
#88 = ADVANCED_FACE ( 'NONE', ( #39 ), #74, .F. ) ;
#89 = EDGE_LOOP ( 'NONE', ( #153 ) ) ;
#90 = LOCAL_TIME ( 11, 35, 8.000000000000000000, #63 ) ;
#91 = FACE_OUTER_BOUND ( 'NONE', #156, .T. ) ;
#92 = PLANE ( 'NONE',  #59 ) ;
#93 = ADVANCED_FACE ( 'NONE', ( #144 ), #92, .T. ) ;
#94 = VERTEX_POINT ( 'NONE', #162 ) ;
#95 = CARTESIAN_POINT ( 'NONE',  ( 3.261185306359188904E-14, -2.872890004500799182E-16, 9.340405947693678712 ) ) ;
#96 = CC_DESIGN_SECURITY_CLASSIFICATION ( #132, ( #7 ) ) ;
#97 = CARTESIAN_POINT ( 'NONE',  ( 1.316288464743861212E-13, -4.616918432785521081E-15, 37.69999999999999574 ) ) ;
#98 = SECURITY_CLASSIFICATION_LEVEL ( 'unclassified' ) ;
#99 = AXIS2_PLACEMENT_3D ( 'NONE', #75, #35, #27 ) ;
#100 = DATE_TIME_ROLE ( 'classification_date' ) ;
#101 = CC_DESIGN_PERSON_AND_ORGANIZATION_ASSIGNMENT ( #170, #45, ( #7 ) ) ;
#102 = COORDINATED_UNIVERSAL_TIME_OFFSET ( 1, 0, .AHEAD. ) ;
#103 = PERSON_AND_ORGANIZATION ( #202, #134 ) ;
#104 = ORIENTED_EDGE ( 'NONE', *, *, #123, .F. ) ;
#105 = EDGE_LOOP ( 'NONE', ( #137 ) ) ;
#106 = DIRECTION ( 'NONE',  ( 3.491481338843133355E-15, -1.224646799147353207E-16, 1.000000000000000000 ) ) ;
#107 = CARTESIAN_POINT ( 'NONE',  ( 2.444036937190193033E-14, -8.592624733039555931E-16, 6.999999999999999112 ) ) ;
#108 = DIRECTION ( 'NONE',  ( -3.491481338843133355E-15, 1.227517819005651059E-16, -1.000000000000000000 ) ) ;
#109 = DIRECTION ( 'NONE',  ( -4.275831445896958607E-31, -1.000000000000000000, -1.224646799147353207E-16 ) ) ;
#110 = DIRECTION ( 'NONE',  ( 3.491481338843133355E-15, -1.224646799147353207E-16, 1.000000000000000000 ) ) ;
#111 = VERTEX_POINT ( 'NONE', #146 ) ;
#112 = APPROVAL_STATUS ( 'not_yet_approved' ) ;
#113 = CC_DESIGN_PERSON_AND_ORGANIZATION_ASSIGNMENT ( #214, #129, ( #7 ) ) ;
#114 = AXIS2_PLACEMENT_3D ( 'NONE', #9, #106, #23 ) ;
#115 = PERSON_AND_ORGANIZATION_ROLE ( 'creator' ) ;
#116 = PERSON_AND_ORGANIZATION_ROLE ( 'design_owner' ) ;
#117 = EDGE_CURVE ( 'NONE', #94, #94, #163, .T. ) ;
#118 = AXIS2_PLACEMENT_3D ( 'NONE', #19, #191, #68 ) ;
#119 = EDGE_LOOP ( 'NONE', ( #65 ) ) ;
#120 = ORIENTED_EDGE ( 'NONE', *, *, #183, .F. ) ;
#121 = EDGE_LOOP ( 'NONE', ( #205 ) ) ;
#122 = FACE_OUTER_BOUND ( 'NONE', #33, .T. ) ;
#123 = EDGE_CURVE ( 'NONE', #72, #72, #85, .T. ) ;
#124 = DIRECTION ( 'NONE',  ( 4.275831445896958607E-31, 1.000000000000000000, 1.224646799147353207E-16 ) ) ;
#125 = CIRCLE ( 'NONE', #99, 1.149999999999995692 ) ;
#126 = VERTEX_POINT ( 'NONE', #26 ) ;
#127 = CARTESIAN_POINT ( 'NONE',  ( -9.857467783757989581E-31, -1.149999999999998135, -2.823290983712993441E-16 ) ) ;
#128 = CYLINDRICAL_SURFACE ( 'NONE', #186, 1.499999999999991784 ) ;
#129 = PERSON_AND_ORGANIZATION_ROLE ( 'design_supplier' ) ;
#130 = AXIS2_PLACEMENT_3D ( 'NONE', #77, #81, #78 ) ;
#131 = COORDINATED_UNIVERSAL_TIME_OFFSET ( 1, 0, .AHEAD. ) ;
#132 = SECURITY_CLASSIFICATION ( '', '', #98 ) ;
#133 = CALENDAR_DATE ( 2021, 1, 11 ) ;
#134 = ORGANIZATION ( 'UNSPECIFIED', 'UNSPECIFIED', '' ) ;
#135 = ORIENTED_EDGE ( 'NONE', *, *, #22, .F. ) ;
#136 = ADVANCED_FACE ( 'NONE', ( #208, #36 ), #215, .F. ) ;
#137 = ORIENTED_EDGE ( 'NONE', *, *, #44, .F. ) ;
#138 = MANIFOLD_SOLID_BREP ( 'Corps-Déplacer/Copier1[1]', #211 ) ;
#139 = DIRECTION ( 'NONE',  ( 3.491481338843133355E-15, -1.227517819005651059E-16, 1.000000000000000000 ) ) ;
#140 = DIRECTION ( 'NONE',  ( 0.0000000000000000000, -1.000000000000000000, 0.0000000000000000000 ) ) ;
#141 = AXIS2_PLACEMENT_3D ( 'NONE', #97, #181, #182 ) ;
#142 = CARTESIAN_POINT ( 'NONE',  ( 3.261185306359188904E-14, 1.499999999999991562, 9.340405947693678712 ) ) ;
#143 = ADVANCED_FACE ( 'NONE', ( #52, #5 ), #46, .T. ) ;
#144 = FACE_OUTER_BOUND ( 'NONE', #223, .T. ) ;
#145 = PERSON_AND_ORGANIZATION ( #202, #134 ) ;
#146 = CARTESIAN_POINT ( 'NONE',  ( 2.444036937190193033E-14, -1.149999999999996581, 6.999999999999999112 ) ) ;
#147 = CC_DESIGN_PERSON_AND_ORGANIZATION_ASSIGNMENT ( #149, #116, ( #151 ) ) ;
#148 = COORDINATED_UNIVERSAL_TIME_OFFSET ( 1, 0, .AHEAD. ) ;
#149 = PERSON_AND_ORGANIZATION ( #202, #134 ) ;
#150 = APPROVAL ( #188, 'UNSPECIFIED' ) ;
#151 = PRODUCT ( '40848', '40848', '', ( #216 ) ) ;
#152 = ORIENTED_EDGE ( 'NONE', *, *, #203, .T. ) ;
#153 = ORIENTED_EDGE ( 'NONE', *, *, #117, .F. ) ;
#154 = LOCAL_TIME ( 11, 35, 8.000000000000000000, #102 ) ;
#155 = ORIENTED_EDGE ( 'NONE', *, *, #203, .F. ) ;
#156 = EDGE_LOOP ( 'NONE', ( #120 ) ) ;
#157 = ADVANCED_FACE ( 'NONE', ( #122 ), #179, .F. ) ;
#158 = SHAPE_DEFINITION_REPRESENTATION ( #16, #30 ) ;
#159 = LOCAL_TIME ( 11, 35, 8.000000000000000000, #148 ) ;
#160 = PLANE ( 'NONE',  #66 ) ;
#161 = DIRECTION ( 'NONE',  ( 3.491481338843133355E-15, -1.227517819005651059E-16, 1.000000000000000000 ) ) ;
#162 = CARTESIAN_POINT ( 'NONE',  ( 1.316288464743861212E-13, 1.499999999999989120, 37.69999999999999574 ) ) ;
#163 = CIRCLE ( 'NONE', #141, 1.499999999999993783 ) ;
#164 = CARTESIAN_POINT ( 'NONE',  ( 0.0000000000000000000, 0.0000000000000000000, 0.0000000000000000000 ) ) ;
#165 = DIRECTION ( 'NONE',  ( -3.491481338843133355E-15, 1.224646799147353207E-16, -1.000000000000000000 ) ) ;
#166 =( NAMED_UNIT ( * ) PLANE_ANGLE_UNIT ( ) SI_UNIT ( $, .RADIAN. ) );
#167 = CC_DESIGN_DATE_AND_TIME_ASSIGNMENT ( #79, #218, ( #76 ) ) ;
#168 = AXIS2_PLACEMENT_3D ( 'NONE', #95, #108, #213 ) ;
#169 = APPROVAL_DATE_TIME ( #61, #48 ) ;
#170 = PERSON_AND_ORGANIZATION ( #202, #134 ) ;
#171 = CIRCLE ( 'NONE', #69, 1.149999999999998135 ) ;
#172 = FACE_OUTER_BOUND ( 'NONE', #105, .T. ) ;
#173 = AXIS2_PLACEMENT_3D ( 'NONE', #175, #57, #6 ) ;
#174 = UNCERTAINTY_MEASURE_WITH_UNIT (LENGTH_MEASURE( 1.000000000000000082E-05 ), #200, 'distance_accuracy_value', 'NONE');
#175 = CARTESIAN_POINT ( 'NONE',  ( 2.444036937190192718E-14, 0.0000000000000000000, 6.999999999999998224 ) ) ;
#176 = AXIS2_PLACEMENT_3D ( 'NONE', #107, #161, #140 ) ;
#177 = DIRECTION ( 'NONE',  ( -4.275831445896958607E-31, -1.000000000000000000, -1.224646799147353207E-16 ) ) ;
#178 = DATE_AND_TIME ( #64, #55 ) ;
#179 = PLANE ( 'NONE',  #114 ) ;
#180 = ADVANCED_FACE ( 'NONE', ( #91 ), #160, .F. ) ;
#181 = DIRECTION ( 'NONE',  ( -3.491481338843133355E-15, 1.224646799147353207E-16, -1.000000000000000000 ) ) ;
#182 = DIRECTION ( 'NONE',  ( 0.0000000000000000000, 1.000000000000000000, 0.0000000000000000000 ) ) ;
#183 = EDGE_CURVE ( 'NONE', #56, #56, #171, .T. ) ;
#184 = DATE_AND_TIME ( #43, #73 ) ;
#185 = CALENDAR_DATE ( 2021, 1, 11 ) ;
#186 = AXIS2_PLACEMENT_3D ( 'NONE', #164, #8, #212 ) ;
#187 = PERSON_AND_ORGANIZATION ( #202, #134 ) ;
#188 = APPROVAL_STATUS ( 'not_yet_approved' ) ;
#189 = CARTESIAN_POINT ( 'NONE',  ( -6.413731847436034514E-31, 0.0000000000000000000, -1.836965810494968570E-16 ) ) ;
#190 = APPROVAL_DATE_TIME ( #178, #220 ) ;
#191 = DIRECTION ( 'NONE',  ( -3.491481338843133355E-15, 1.224646799147353207E-16, -1.000000000000000000 ) ) ;
#192 = APPLICATION_CONTEXT ( 'configuration controlled 3d designs of mechanical parts and assemblies' ) ;
#193 = CC_DESIGN_APPROVAL ( #220, ( #132 ) ) ;
#194 = DIRECTION ( 'NONE',  ( 3.491481338843133355E-15, -1.227517819005651059E-16, 1.000000000000000000 ) ) ;
#195 = CARTESIAN_POINT ( 'NONE',  ( 2.444036937190193033E-14, 1.124819836996384448E-32, 6.999999999999999112 ) ) ;
#196 = CC_DESIGN_APPROVAL ( #48, ( #7 ) ) ;
#197 = DIRECTION ( 'NONE',  ( -4.285855558155652404E-31, -1.000000000000000000, -1.227517819005651305E-16 ) ) ;
#198 = FACE_OUTER_BOUND ( 'NONE', #50, .T. ) ;
#199 = CIRCLE ( 'NONE', #176, 1.149999999999995692 ) ;
#200 =( LENGTH_UNIT ( ) NAMED_UNIT ( * ) SI_UNIT ( .MILLI., .METRE. ) );
#201 = CC_DESIGN_PERSON_AND_ORGANIZATION_ASSIGNMENT ( #145, #115, ( #76 ) ) ;
#202 = PERSON ( 'UNSPECIFIED', 'UNSPECIFIED', 'UNSPECIFIED', ('UNSPECIFIED'), ('UNSPECIFIED'), ('UNSPECIFIED') ) ;
#203 = EDGE_CURVE ( 'NONE', #111, #111, #199, .T. ) ;
#204 = PERSON_AND_ORGANIZATION ( #202, #134 ) ;
#205 = ORIENTED_EDGE ( 'NONE', *, *, #183, .T. ) ;
#206 = ORIENTED_EDGE ( 'NONE', *, *, #22, .T. ) ;
#207 = CLOSED_SHELL ( 'NONE', ( #93, #40, #180 ) ) ;
#208 = FACE_OUTER_BOUND ( 'NONE', #87, .T. ) ;
#209 = DIRECTION ( 'NONE',  ( -3.491481338843133355E-15, 1.224646799147353207E-16, -1.000000000000000000 ) ) ;
#210 = VERTEX_POINT ( 'NONE', #54 ) ;
#211 = CLOSED_SHELL ( 'NONE', ( #51, #143, #88, #136, #157 ) ) ;
#212 = DIRECTION ( 'NONE',  ( 4.275831445896958607E-31, 1.000000000000000000, 1.224646799147353207E-16 ) ) ;
#213 = DIRECTION ( 'NONE',  ( 0.0000000000000000000, 1.000000000000000000, 0.0000000000000000000 ) ) ;
#214 = PERSON_AND_ORGANIZATION ( #202, #134 ) ;
#215 = TOROIDAL_SURFACE ( 'NONE', #173, 9.149999999999995026, 8.000000000000000000 ) ;
#216 = MECHANICAL_CONTEXT ( 'NONE', #192, 'mechanical' ) ;
#217 = APPLICATION_CONTEXT ( 'configuration controlled 3d designs of mechanical parts and assemblies' ) ;
#218 = DATE_TIME_ROLE ( 'creation_date' ) ;
#219 = CALENDAR_DATE ( 2021, 1, 11 ) ;
#220 = APPROVAL ( #83, 'UNSPECIFIED' ) ;
#221 = MANIFOLD_SOLID_BREP ( 'Corps-Déplacer/Copier1[2]', #207 ) ;
#222 = CIRCLE ( 'NONE', #118, 1.199999999999993738 ) ;
#223 = EDGE_LOOP ( 'NONE', ( #84 ) ) ;
ENDSEC;
END-ISO-10303-21;
