ISO-10303-21;
HEADER;
FILE_DESCRIPTION (( 'STEP AP203' ),
    '1' );
FILE_NAME ('40812.step',
    '2021-09-02T13:22:36',
    ( '' ),
    ( '' ),
    'SwSTEP 2.0',
    'SolidWorks 2019',
    '' );
FILE_SCHEMA (( 'CONFIG_CONTROL_DESIGN' ));
ENDSEC;

DATA;
#1 = CARTESIAN_POINT ( 'NONE',  ( 4.608755367272936534E-13, 4.999999999999980460, 132.0000000000000000 ) ) ;
#2 = CARTESIAN_POINT ( 'NONE',  ( 4.608755367272936534E-13, -1.616533774874506480E-14, 132.0000000000000000 ) ) ;
#3 = AXIS2_PLACEMENT_3D ( 'NONE', #198, #283, #277 ) ;
#4 = FACE_OUTER_BOUND ( 'NONE', #224, .T. ) ;
#5 = DIRECTION ( 'NONE',  ( -3.491481338843133355E-15, 1.224646799147353207E-16, -1.000000000000000000 ) ) ;
#6 = CIRCLE ( 'NONE', #205, 4.999999999999990230 ) ;
#7 = APPROVAL ( #127, 'UNSPECIFIED' ) ;
#8 = CC_DESIGN_DATE_AND_TIME_ASSIGNMENT ( #20, #328, ( #228 ) ) ;
#9 = VERTEX_POINT ( 'NONE', #107 ) ;
#10 = AXIS2_PLACEMENT_3D ( 'NONE', #71, #146, #157 ) ;
#11 = EDGE_CURVE ( 'NONE', #174, #163, #105, .T. ) ;
#12 = UNCERTAINTY_MEASURE_WITH_UNIT (LENGTH_MEASURE( 1.000000000000000082E-05 ), #219, 'distance_accuracy_value', 'NONE');
#13 = APPROVAL_PERSON_ORGANIZATION ( #313, #117, #81 ) ;
#14 = AXIS2_PLACEMENT_3D ( 'NONE', #173, #280, #30 ) ;
#15 =( NAMED_UNIT ( * ) PLANE_ANGLE_UNIT ( ) SI_UNIT ( $, .RADIAN. ) );
#16 = ORIENTED_EDGE ( 'NONE', *, *, #211, .T. ) ;
#17 = APPROVAL_STATUS ( 'not_yet_approved' ) ;
#18 = ADVANCED_FACE ( 'NONE', ( #210 ), #56, .T. ) ;
#19 = VERTEX_POINT ( 'NONE', #181 ) ;
#20 = DATE_AND_TIME ( #129, #65 ) ;
#21 = ORIENTED_EDGE ( 'NONE', *, *, #246, .F. ) ;
#22 = CC_DESIGN_SECURITY_CLASSIFICATION ( #266, ( #304 ) ) ;
#23 = CARTESIAN_POINT ( 'NONE',  ( 1.577364957357008674E-13, -5.000000000000000888, 87.00000000000000000 ) ) ;
#24 = EDGE_LOOP ( 'NONE', ( #264, #270 ) ) ;
#25 = CARTESIAN_POINT ( 'NONE',  ( 3.829295300028967845E-13, -5.000000000000000888, 87.00000000000000000 ) ) ;
#26 = CARTESIAN_POINT ( 'NONE',  ( 1.048946819290237464E-14, -3.679210169129020402E-16, 3.004303095137822233 ) ) ;
#27 = CIRCLE ( 'NONE', #222, 3.999999999999996447 ) ;
#28 = EDGE_CURVE ( 'NONE', #299, #174, #111, .T. ) ;
#29 = DIRECTION ( 'NONE',  ( 0.0000000000000000000, 1.000000000000000000, 0.0000000000000000000 ) ) ;
#30 = DIRECTION ( 'NONE',  ( -4.275831445896958607E-31, -1.000000000000000000, -1.224646799147353207E-16 ) ) ;
#31 = DIRECTION ( 'NONE',  ( -3.491481338843133355E-15, 1.224646799147353207E-16, -1.000000000000000000 ) ) ;
#32 = SHAPE_DEFINITION_REPRESENTATION ( #282, #337 ) ;
#33 = AXIS2_PLACEMENT_3D ( 'NONE', #77, #156, #183 ) ;
#34 = CONICAL_SURFACE ( 'NONE', #189, 3.999999999999996447, 0.7853981633974479459 ) ;
#35 = LOCAL_TIME ( 15, 22, 36.00000000000000000, #40 ) ;
#36 = APPLICATION_PROTOCOL_DEFINITION ( 'international standard', 'config_control_design', 1994, #112 ) ;
#37 = EDGE_CURVE ( 'NONE', #320, #19, #252, .T. ) ;
#38 = ORIENTED_EDGE ( 'NONE', *, *, #293, .F. ) ;
#39 = CONICAL_SURFACE ( 'NONE', #87, 3.999999999999996447, 0.7853981633974479459 ) ;
#40 = COORDINATED_UNIVERSAL_TIME_OFFSET ( 1, 0, .AHEAD. ) ;
#41 = VERTEX_POINT ( 'NONE', #176 ) ;
#42 = EDGE_LOOP ( 'NONE', ( #274, #325 ) ) ;
#43 = DIRECTION ( 'NONE',  ( -3.491481338843133355E-15, 1.224646799147353207E-16, -1.000000000000000000 ) ) ;
#44 = EDGE_LOOP ( 'NONE', ( #239, #62 ) ) ;
#45 = LOCAL_TIME ( 15, 22, 36.00000000000000000, #284 ) ;
#46 = CARTESIAN_POINT ( 'NONE',  ( 3.829295300028966835E-13, -5.000000000000013323, 132.0000000000000000 ) ) ;
#47 = DIRECTION ( 'NONE',  ( 0.0000000000000000000, 1.000000000000000000, 0.0000000000000000000 ) ) ;
#48 = APPROVAL ( #17, 'UNSPECIFIED' ) ;
#49 = LINE ( 'NONE', #124, #334 ) ;
#50 = APPROVAL_STATUS ( 'not_yet_approved' ) ;
#51 = FACE_OUTER_BOUND ( 'NONE', #194, .T. ) ;
#52 = CYLINDRICAL_SURFACE ( 'NONE', #192, 4.999999999999985789 ) ;
#53 = VECTOR ( 'NONE', #180, 1000.000000000000000 ) ;
#54 = APPROVAL_DATE_TIME ( #309, #117 ) ;
#55 = CARTESIAN_POINT ( 'NONE',  ( 0.0000000000000000000, 0.0000000000000000000, 0.0000000000000000000 ) ) ;
#56 = CONICAL_SURFACE ( 'NONE', #322, 4.999999999999980460, 1.029744258676649649 ) ;
#57 = DIRECTION ( 'NONE',  ( -3.491481338843133355E-15, 1.224646799147353207E-16, -1.000000000000000000 ) ) ;
#58 = CIRCLE ( 'NONE', #3, 4.999999999999996447 ) ;
#59 = FACE_OUTER_BOUND ( 'NONE', #42, .T. ) ;
#60 = EDGE_CURVE ( 'NONE', #41, #320, #259, .T. ) ;
#61 = ORIENTED_EDGE ( 'NONE', *, *, #195, .F. ) ;
#62 = ORIENTED_EDGE ( 'NONE', *, *, #211, .F. ) ;
#63 = DIRECTION ( 'NONE',  ( 4.275831445896959482E-31, 1.000000000000000000, 1.224646799147353207E-16 ) ) ;
#64 = EDGE_CURVE ( 'NONE', #220, #9, #98, .T. ) ;
#65 = LOCAL_TIME ( 15, 22, 36.00000000000000000, #254 ) ;
#66 = VECTOR ( 'NONE', #207, 1000.000000000000000 ) ;
#67 = CIRCLE ( 'NONE', #93, 4.999999999999990230 ) ;
#68 = PERSON_AND_ORGANIZATION_ROLE ( 'classification_officer' ) ;
#69 = DIRECTION ( 'NONE',  ( 0.0000000000000000000, 0.0000000000000000000, 1.000000000000000000 ) ) ;
#70 = EDGE_LOOP ( 'NONE', ( #250, #72, #61, #38 ) ) ;
#71 = CARTESIAN_POINT ( 'NONE',  ( 1.048946819290237464E-14, -3.679210169129020402E-16, 3.004303095137822233 ) ) ;
#72 = ORIENTED_EDGE ( 'NONE', *, *, #246, .T. ) ;
#73 = CYLINDRICAL_SURFACE ( 'NONE', #141, 4.999999999999993783 ) ;
#74 = ADVANCED_FACE ( 'NONE', ( #306 ), #52, .T. ) ;
#75 = DIRECTION ( 'NONE',  ( -3.081487911019589626E-31, -1.000000000000000000, -8.673617379884069985E-17 ) ) ;
#76 = DIRECTION ( 'NONE',  ( -2.382254525458717469E-15, -0.7071067811865471286, -0.7071067811865479058 ) ) ;
#77 = CARTESIAN_POINT ( 'NONE',  ( 3.037588764793525640E-13, -1.065442715258197209E-14, 87.00000000000000000 ) ) ;
#78 = CARTESIAN_POINT ( 'NONE',  ( 4.643670180661366731E-13, 3.999999999999980016, 133.0000000000000000 ) ) ;
#79 = EDGE_CURVE ( 'NONE', #323, #221, #136, .T. ) ;
#80 = CARTESIAN_POINT ( 'NONE',  ( 3.037588764793525640E-13, -1.065442715258197209E-14, 87.00000000000000000 ) ) ;
#81 = APPROVAL_ROLE ( '' ) ;
#82 = DIRECTION ( 'NONE',  ( 4.275831445896958607E-31, 1.000000000000000000, 1.224646799147352961E-16 ) ) ;
#83 = CONICAL_SURFACE ( 'NONE', #10, 4.999999999999980460, 1.029744258676649649 ) ;
#84 = ADVANCED_FACE ( 'NONE', ( #257 ), #286, .T. ) ;
#85 = CARTESIAN_POINT ( 'NONE',  ( 3.037588764793525640E-13, -1.065442715258197209E-14, 87.00000000000000000 ) ) ;
#86 = CC_DESIGN_PERSON_AND_ORGANIZATION_ASSIGNMENT ( #294, #68, ( #266 ) ) ;
#87 = AXIS2_PLACEMENT_3D ( 'NONE', #102, #297, #151 ) ;
#88 = AXIS2_PLACEMENT_3D ( 'NONE', #258, #178, #29 ) ;
#89 = AXIS2_PLACEMENT_3D ( 'NONE', #256, #249, #128 ) ;
#90 = ADVANCED_FACE ( 'NONE', ( #106 ), #34, .T. ) ;
#91 = ORIENTED_EDGE ( 'NONE', *, *, #60, .F. ) ;
#92 = PERSON_AND_ORGANIZATION ( #316, #285 ) ;
#93 = AXIS2_PLACEMENT_3D ( 'NONE', #85, #43, #332 ) ;
#94 = PERSON_AND_ORGANIZATION ( #316, #285 ) ;
#95 = COORDINATED_UNIVERSAL_TIME_OFFSET ( 1, 0, .AHEAD. ) ;
#96 = MANIFOLD_SOLID_BREP ( 'Corps-Déplacer/Copier1[2]', #213 ) ;
#97 = VERTEX_POINT ( 'NONE', #159 ) ;
#98 = CIRCLE ( 'NONE', #318, 3.999999999999996447 ) ;
#99 = DIRECTION ( 'NONE',  ( 0.0000000000000000000, 1.000000000000000000, 0.0000000000000000000 ) ) ;
#100 = DIRECTION ( 'NONE',  ( -3.491481338843133355E-15, 1.224646799147353207E-16, -1.000000000000000000 ) ) ;
#101 = DIRECTION ( 'NONE',  ( -3.491481338843133355E-15, 1.224646799147353207E-16, -1.000000000000000000 ) ) ;
#102 = CARTESIAN_POINT ( 'NONE',  ( 4.643670180661366731E-13, -1.628780242865979995E-14, 133.0000000000000000 ) ) ;
#103 = ORIENTED_EDGE ( 'NONE', *, *, #64, .T. ) ;
#104 = DIRECTION ( 'NONE',  ( -3.491481338843133355E-15, 1.224646799147353207E-16, -1.000000000000000000 ) ) ;
#105 = LINE ( 'NONE', #303, #66 ) ;
#106 = FACE_OUTER_BOUND ( 'NONE', #261, .T. ) ;
#107 = CARTESIAN_POINT ( 'NONE',  ( 4.631723684563314841E-13, -4.000000000000013323, 133.0000000000000000 ) ) ;
#108 = EDGE_CURVE ( 'NONE', #299, #97, #262, .T. ) ;
#109 = VECTOR ( 'NONE', #200, 1000.000000000000000 ) ;
#110 = ORIENTED_EDGE ( 'NONE', *, *, #138, .T. ) ;
#111 = CIRCLE ( 'NONE', #137, 4.999999999999996447 ) ;
#112 = APPLICATION_CONTEXT ( 'configuration controlled 3d designs of mechanical parts and assemblies' ) ;
#113 = PRODUCT ( '40812', '40812', '', ( #321 ) ) ;
#114 = CARTESIAN_POINT ( 'NONE',  ( 3.037588764793525640E-13, 4.999999999999980460, 87.00000000000000000 ) ) ;
#115 = CARTESIAN_POINT ( 'NONE',  ( 0.0000000000000000000, 0.0000000000000000000, 0.0000000000000000000 ) ) ;
#116 = ORIENTED_EDGE ( 'NONE', *, *, #177, .T. ) ;
#117 = APPROVAL ( #50, 'UNSPECIFIED' ) ;
#118 = EDGE_LOOP ( 'NONE', ( #168, #116, #329, #123 ) ) ;
#119 = PERSON_AND_ORGANIZATION ( #316, #285 ) ;
#120 = EDGE_LOOP ( 'NONE', ( #162, #245, #265, #296 ) ) ;
#121 = DATE_AND_TIME ( #324, #161 ) ;
#122 = APPROVAL_PERSON_ORGANIZATION ( #244, #48, #169 ) ;
#123 = ORIENTED_EDGE ( 'NONE', *, *, #307, .F. ) ;
#124 = CARTESIAN_POINT ( 'NONE',  ( 4.643670180661366731E-13, 3.999999999999980016, 133.0000000000000000 ) ) ;
#125 = ORIENTED_EDGE ( 'NONE', *, *, #28, .F. ) ;
#126 = CIRCLE ( 'NONE', #88, 4.999999999999990230 ) ;
#127 = APPROVAL_STATUS ( 'not_yet_approved' ) ;
#128 = DIRECTION ( 'NONE',  ( 3.081487911019589626E-31, 1.000000000000000000, 8.673617379884069985E-17 ) ) ;
#129 = CALENDAR_DATE ( 2021, 2, 9 ) ;
#130 = CARTESIAN_POINT ( 'NONE',  ( 2.137915722948477026E-30, 4.999999999999993783, 6.123233995736758394E-16 ) ) ;
#131 = ADVANCED_FACE ( 'NONE', ( #59 ), #288, .T. ) ;
#132 = FACE_OUTER_BOUND ( 'NONE', #24, .T. ) ;
#133 = FACE_OUTER_BOUND ( 'NONE', #44, .T. ) ;
#134 = DIRECTION ( 'NONE',  ( -3.491481338843133355E-15, 1.224646799147353207E-16, -1.000000000000000000 ) ) ;
#135 = ORIENTED_EDGE ( 'NONE', *, *, #149, .F. ) ;
#136 = CIRCLE ( 'NONE', #33, 4.999999999999990230 ) ;
#137 = AXIS2_PLACEMENT_3D ( 'NONE', #2, #212, #314 ) ;
#138 = EDGE_CURVE ( 'NONE', #221, #323, #67, .T. ) ;
#139 = APPROVAL_PERSON_ORGANIZATION ( #248, #7, #203 ) ;
#140 = ADVANCED_FACE ( 'NONE', ( #275 ), #232, .T. ) ;
#141 = AXIS2_PLACEMENT_3D ( 'NONE', #115, #218, #63 ) ;
#142 = AXIS2_PLACEMENT_3D ( 'NONE', #26, #315, #179 ) ;
#143 = CALENDAR_DATE ( 2021, 2, 9 ) ;
#144 = ORIENTED_EDGE ( 'NONE', *, *, #293, .T. ) ;
#145 = APPLICATION_PROTOCOL_DEFINITION ( 'international standard', 'config_control_design', 1994, #231 ) ;
#146 = DIRECTION ( 'NONE',  ( 3.491481338843133355E-15, -1.224646799147353207E-16, 1.000000000000000000 ) ) ;
#147 = APPROVAL_DATE_TIME ( #272, #48 ) ;
#148 = CC_DESIGN_APPROVAL ( #7, ( #228 ) ) ;
#149 = EDGE_CURVE ( 'NONE', #41, #19, #154, .T. ) ;
#150 = VECTOR ( 'NONE', #76, 1000.000000000000000 ) ;
#151 = DIRECTION ( 'NONE',  ( 0.0000000000000000000, 1.000000000000000000, 0.0000000000000000000 ) ) ;
#152 = DIRECTION ( 'NONE',  ( 4.275831445896958607E-31, 1.000000000000000000, 1.224646799147352961E-16 ) ) ;
#153 = DIRECTION ( 'NONE',  ( -3.491481338843133355E-15, 1.224646799147353207E-16, -1.000000000000000000 ) ) ;
#154 = LINE ( 'NONE', #182, #227 ) ;
#155 = DATE_AND_TIME ( #143, #35 ) ;
#156 = DIRECTION ( 'NONE',  ( -3.491481338843133355E-15, 1.224646799147353207E-16, -1.000000000000000000 ) ) ;
#157 = DIRECTION ( 'NONE',  ( -3.081487911019589626E-31, -1.000000000000000000, -8.673617379884069985E-17 ) ) ;
#158 = CARTESIAN_POINT ( 'NONE',  ( 0.0000000000000000000, 0.0000000000000000000, 0.0000000000000000000 ) ) ;
#159 = CARTESIAN_POINT ( 'NONE',  ( 3.037588764793525640E-13, 4.999999999999980460, 87.00000000000000000 ) ) ;
#160 = AXIS2_PLACEMENT_3D ( 'NONE', #214, #188, #317 ) ;
#161 = LOCAL_TIME ( 15, 22, 36.00000000000000000, #167 ) ;
#162 = ORIENTED_EDGE ( 'NONE', *, *, #28, .T. ) ;
#163 = VERTEX_POINT ( 'NONE', #25 ) ;
#164 =( GEOMETRIC_REPRESENTATION_CONTEXT ( 3 ) GLOBAL_UNCERTAINTY_ASSIGNED_CONTEXT ( ( #12 ) ) GLOBAL_UNIT_ASSIGNED_CONTEXT ( ( #219, #15, #242 ) ) REPRESENTATION_CONTEXT ( 'NONE', 'WORKASPACE' ) );
#165 = AXIS2_PLACEMENT_3D ( 'NONE', #55, #134, #152 ) ;
#166 = CC_DESIGN_PERSON_AND_ORGANIZATION_ASSIGNMENT ( #92, #223, ( #228 ) ) ;
#167 = COORDINATED_UNIVERSAL_TIME_OFFSET ( 1, 0, .AHEAD. ) ;
#168 = ORIENTED_EDGE ( 'NONE', *, *, #11, .F. ) ;
#169 = APPROVAL_ROLE ( '' ) ;
#170 = ORIENTED_EDGE ( 'NONE', *, *, #37, .T. ) ;
#171 = ORIENTED_EDGE ( 'NONE', *, *, #273, .T. ) ;
#172 = AXIS2_PLACEMENT_3D ( 'NONE', #209, #31, #206 ) ;
#173 = CARTESIAN_POINT ( 'NONE',  ( 3.037588764793525640E-13, 3.749399456654621577E-32, 87.00000000000000000 ) ) ;
#174 = VERTEX_POINT ( 'NONE', #46 ) ;
#175 = DIRECTION ( 'NONE',  ( 1.903218546456022717E-15, 0.8571673007021097801, 0.5150380749100585964 ) ) ;
#176 = CARTESIAN_POINT ( 'NONE',  ( 0.0000000000000000000, 0.0000000000000000000, 0.0000000000000000000 ) ) ;
#177 = EDGE_CURVE ( 'NONE', #174, #299, #58, .T. ) ;
#178 = DIRECTION ( 'NONE',  ( -3.491481338843133355E-15, 1.224646799147353207E-16, -1.000000000000000000 ) ) ;
#179 = DIRECTION ( 'NONE',  ( 3.081487911019589626E-31, 1.000000000000000000, 8.673617379884069985E-17 ) ) ;
#180 = DIRECTION ( 'NONE',  ( -3.491481338843133355E-15, 1.224646799147353207E-16, -1.000000000000000000 ) ) ;
#181 = CARTESIAN_POINT ( 'NONE',  ( 1.110179159247605038E-14, 4.999999999999980460, 3.004303095137822677 ) ) ;
#182 = CARTESIAN_POINT ( 'NONE',  ( 1.110179159247605038E-14, 4.999999999999980460, 3.004303095137822677 ) ) ;
#183 = DIRECTION ( 'NONE',  ( 0.0000000000000000000, 1.000000000000000000, 0.0000000000000000000 ) ) ;
#184 = LOCAL_TIME ( 15, 22, 36.00000000000000000, #95 ) ;
#185 = DATE_TIME_ROLE ( 'classification_date' ) ;
#186 = ADVANCED_FACE ( 'NONE', ( #51 ), #83, .T. ) ;
#187 = CC_DESIGN_PERSON_AND_ORGANIZATION_ASSIGNMENT ( #201, #301, ( #304 ) ) ;
#188 = DIRECTION ( 'NONE',  ( 3.491481338843133355E-15, -1.224646799147353207E-16, 1.000000000000000000 ) ) ;
#189 = AXIS2_PLACEMENT_3D ( 'NONE', #287, #57, #255 ) ;
#190 = ADVANCED_FACE ( 'NONE', ( #4 ), #39, .T. ) ;
#191 = CC_DESIGN_DATE_AND_TIME_ASSIGNMENT ( #155, #185, ( #266 ) ) ;
#192 = AXIS2_PLACEMENT_3D ( 'NONE', #158, #5, #82 ) ;
#193 = SECURITY_CLASSIFICATION_LEVEL ( 'unclassified' ) ;
#194 = EDGE_LOOP ( 'NONE', ( #91, #331, #268 ) ) ;
#195 = EDGE_CURVE ( 'NONE', #19, #320, #327, .T. ) ;
#196 = CARTESIAN_POINT ( 'NONE',  ( 0.0000000000000000000, 0.0000000000000000000, 0.0000000000000000000 ) ) ;
#197 = ORIENTED_EDGE ( 'NONE', *, *, #37, .F. ) ;
#198 = CARTESIAN_POINT ( 'NONE',  ( 4.608755367272936534E-13, -1.616533774874506480E-14, 132.0000000000000000 ) ) ;
#199 = EDGE_LOOP ( 'NONE', ( #135, #226, #170 ) ) ;
#200 = DIRECTION ( 'NONE',  ( -3.491481338843133355E-15, 1.224646799147353207E-16, -1.000000000000000000 ) ) ;
#201 = PERSON_AND_ORGANIZATION ( #316, #285 ) ;
#202 = ORIENTED_EDGE ( 'NONE', *, *, #251, .F. ) ;
#203 = APPROVAL_ROLE ( '' ) ;
#204 = LINE ( 'NONE', #260, #53 ) ;
#205 = AXIS2_PLACEMENT_3D ( 'NONE', #80, #104, #99 ) ;
#206 = DIRECTION ( 'NONE',  ( 4.275831445896959482E-31, 1.000000000000000000, 1.224646799147353207E-16 ) ) ;
#207 = DIRECTION ( 'NONE',  ( -3.491481338843133355E-15, 1.224646799147353207E-16, -1.000000000000000000 ) ) ;
#208 = PERSON_AND_ORGANIZATION_ROLE ( 'design_owner' ) ;
#209 = CARTESIAN_POINT ( 'NONE',  ( 0.0000000000000000000, 0.0000000000000000000, 0.0000000000000000000 ) ) ;
#210 = FACE_OUTER_BOUND ( 'NONE', #199, .T. ) ;
#211 = EDGE_CURVE ( 'NONE', #9, #220, #27, .T. ) ;
#212 = DIRECTION ( 'NONE',  ( -3.491481338843133355E-15, 1.224646799147353207E-16, -1.000000000000000000 ) ) ;
#213 = CLOSED_SHELL ( 'NONE', ( #74, #186, #18, #84, #131 ) ) ;
#214 = CARTESIAN_POINT ( 'NONE',  ( 3.037588764793525640E-13, 3.749399456654621577E-32, 87.00000000000000000 ) ) ;
#215 = AXIS2_PLACEMENT_3D ( 'NONE', #229, #100, #235 ) ;
#216 = CC_DESIGN_PERSON_AND_ORGANIZATION_ASSIGNMENT ( #119, #326, ( #304 ) ) ;
#217 = CC_DESIGN_APPROVAL ( #117, ( #266 ) ) ;
#218 = DIRECTION ( 'NONE',  ( -3.491481338843133355E-15, 1.224646799147353207E-16, -1.000000000000000000 ) ) ;
#219 =( LENGTH_UNIT ( ) NAMED_UNIT ( * ) SI_UNIT ( .MILLI., .METRE. ) );
#220 = VERTEX_POINT ( 'NONE', #78 ) ;
#221 = VERTEX_POINT ( 'NONE', #23 ) ;
#222 = AXIS2_PLACEMENT_3D ( 'NONE', #271, #153, #308 ) ;
#223 = PERSON_AND_ORGANIZATION_ROLE ( 'creator' ) ;
#224 = EDGE_LOOP ( 'NONE', ( #103, #295, #125, #247 ) ) ;
#225 = DIRECTION ( 'NONE',  ( -2.468850131082266527E-15, 0.7071067811865473507, -0.7071067811865477948 ) ) ;
#226 = ORIENTED_EDGE ( 'NONE', *, *, #60, .T. ) ;
#227 = VECTOR ( 'NONE', #175, 999.9999999999998863 ) ;
#228 = PRODUCT_DEFINITION ( 'UNKNOWN', '', #304, #241 ) ;
#229 = CARTESIAN_POINT ( 'NONE',  ( 4.643670180661366731E-13, 2.999519565323688394E-32, 133.0000000000000000 ) ) ;
#230 = DIRECTION ( 'NONE',  ( 1.798245827342160317E-15, -0.8571673007021098911, 0.5150380749100582634 ) ) ;
#231 = APPLICATION_CONTEXT ( 'configuration controlled 3d designs of mechanical parts and assemblies' ) ;
#232 = CYLINDRICAL_SURFACE ( 'NONE', #172, 4.999999999999993783 ) ;
#233 = CC_DESIGN_APPROVAL ( #48, ( #304 ) ) ;
#234 = LINE ( 'NONE', #330, #109 ) ;
#235 = DIRECTION ( 'NONE',  ( 4.275831445896958607E-31, 1.000000000000000000, 1.224646799147353207E-16 ) ) ;
#236 = CARTESIAN_POINT ( 'NONE',  ( 4.643670180661366731E-13, -1.628780242865979995E-14, 133.0000000000000000 ) ) ;
#237 = CARTESIAN_POINT ( 'NONE',  ( 1.048946819290237464E-14, -3.679210169129020402E-16, 3.004303095137822233 ) ) ;
#238 = AXIS2_PLACEMENT_3D ( 'NONE', #196, #69, #292 ) ;
#239 = ORIENTED_EDGE ( 'NONE', *, *, #64, .F. ) ;
#240 = VECTOR ( 'NONE', #230, 1000.000000000000000 ) ;
#241 = DESIGN_CONTEXT ( 'detailed design', #231, 'design' ) ;
#242 =( NAMED_UNIT ( * ) SI_UNIT ( $, .STERADIAN. ) SOLID_ANGLE_UNIT ( ) );
#243 = ADVANCED_FACE ( 'NONE', ( #133 ), #335, .F. ) ;
#244 = PERSON_AND_ORGANIZATION ( #316, #285 ) ;
#245 = ORIENTED_EDGE ( 'NONE', *, *, #11, .T. ) ;
#246 = EDGE_CURVE ( 'NONE', #221, #320, #204, .T. ) ;
#247 = ORIENTED_EDGE ( 'NONE', *, *, #273, .F. ) ;
#248 = PERSON_AND_ORGANIZATION ( #316, #285 ) ;
#249 = DIRECTION ( 'NONE',  ( -3.491481338843133355E-15, 1.224646799147353207E-16, -1.000000000000000000 ) ) ;
#250 = ORIENTED_EDGE ( 'NONE', *, *, #79, .T. ) ;
#251 = EDGE_CURVE ( 'NONE', #9, #174, #253, .T. ) ;
#252 = CIRCLE ( 'NONE', #142, 4.999999999999980460 ) ;
#253 = LINE ( 'NONE', #305, #150 ) ;
#254 = COORDINATED_UNIVERSAL_TIME_OFFSET ( 1, 0, .AHEAD. ) ;
#255 = DIRECTION ( 'NONE',  ( 0.0000000000000000000, 1.000000000000000000, 0.0000000000000000000 ) ) ;
#256 = CARTESIAN_POINT ( 'NONE',  ( 1.048946819290237464E-14, -3.679210169129020402E-16, 3.004303095137822233 ) ) ;
#257 = FACE_OUTER_BOUND ( 'NONE', #281, .T. ) ;
#258 = CARTESIAN_POINT ( 'NONE',  ( 3.037588764793525640E-13, -1.065442715258197209E-14, 87.00000000000000000 ) ) ;
#259 = LINE ( 'NONE', #310, #240 ) ;
#260 = CARTESIAN_POINT ( 'NONE',  ( 6.123233995736727825E-16, -4.999999999999985789, -6.123233995736769241E-16 ) ) ;
#261 = EDGE_LOOP ( 'NONE', ( #202, #16, #171, #278 ) ) ;
#262 = LINE ( 'NONE', #130, #302 ) ;
#263 = ADVANCED_FACE ( 'NONE', ( #132 ), #312, .F. ) ;
#264 = ORIENTED_EDGE ( 'NONE', *, *, #279, .T. ) ;
#265 = ORIENTED_EDGE ( 'NONE', *, *, #279, .F. ) ;
#266 = SECURITY_CLASSIFICATION ( '', '', #193 ) ;
#267 = PRODUCT_RELATED_PRODUCT_CATEGORY ( 'detail', '', ( #113 ) ) ;
#268 = ORIENTED_EDGE ( 'NONE', *, *, #195, .T. ) ;
#269 = APPROVAL_DATE_TIME ( #121, #7 ) ;
#270 = ORIENTED_EDGE ( 'NONE', *, *, #307, .T. ) ;
#271 = CARTESIAN_POINT ( 'NONE',  ( 4.643670180661366731E-13, -1.628780242865979995E-14, 133.0000000000000000 ) ) ;
#272 = DATE_AND_TIME ( #298, #184 ) ;
#273 = EDGE_CURVE ( 'NONE', #220, #299, #49, .T. ) ;
#274 = ORIENTED_EDGE ( 'NONE', *, *, #79, .F. ) ;
#275 = FACE_OUTER_BOUND ( 'NONE', #118, .T. ) ;
#276 = DIRECTION ( 'NONE',  ( -3.491481338843133355E-15, 1.224646799147353207E-16, -1.000000000000000000 ) ) ;
#277 = DIRECTION ( 'NONE',  ( 0.0000000000000000000, 1.000000000000000000, 0.0000000000000000000 ) ) ;
#278 = ORIENTED_EDGE ( 'NONE', *, *, #177, .F. ) ;
#279 = EDGE_CURVE ( 'NONE', #97, #163, #126, .T. ) ;
#280 = DIRECTION ( 'NONE',  ( 3.491481338843133355E-15, -1.224646799147353207E-16, 1.000000000000000000 ) ) ;
#281 = EDGE_LOOP ( 'NONE', ( #21, #110, #144, #197 ) ) ;
#282 = PRODUCT_DEFINITION_SHAPE ( 'NONE', 'NONE',  #228 ) ;
#283 = DIRECTION ( 'NONE',  ( -3.491481338843133355E-15, 1.224646799147353207E-16, -1.000000000000000000 ) ) ;
#284 = COORDINATED_UNIVERSAL_TIME_OFFSET ( 1, 0, .AHEAD. ) ;
#285 = ORGANIZATION ( 'UNSPECIFIED', 'UNSPECIFIED', '' ) ;
#286 = CYLINDRICAL_SURFACE ( 'NONE', #165, 4.999999999999985789 ) ;
#287 = CARTESIAN_POINT ( 'NONE',  ( 4.643670180661366731E-13, -1.628780242865979995E-14, 133.0000000000000000 ) ) ;
#288 = PLANE ( 'NONE',  #160 ) ;
#289 = CC_DESIGN_PERSON_AND_ORGANIZATION_ASSIGNMENT ( #94, #208, ( #113 ) ) ;
#290 = CARTESIAN_POINT ( 'NONE',  ( 1.048946819290237306E-14, -4.999999999999980460, 3.004303095137821789 ) ) ;
#291 = CLOSED_SHELL ( 'NONE', ( #190, #311, #263, #140, #90, #243 ) ) ;
#292 = DIRECTION ( 'NONE',  ( 1.000000000000000000, 0.0000000000000000000, 0.0000000000000000000 ) ) ;
#293 = EDGE_CURVE ( 'NONE', #323, #19, #234, .T. ) ;
#294 = PERSON_AND_ORGANIZATION ( #316, #285 ) ;
#295 = ORIENTED_EDGE ( 'NONE', *, *, #251, .T. ) ;
#296 = ORIENTED_EDGE ( 'NONE', *, *, #108, .F. ) ;
#297 = DIRECTION ( 'NONE',  ( -3.491481338843133355E-15, 1.224646799147353207E-16, -1.000000000000000000 ) ) ;
#298 = CALENDAR_DATE ( 2021, 2, 9 ) ;
#299 = VERTEX_POINT ( 'NONE', #1 ) ;
#300 = FACE_OUTER_BOUND ( 'NONE', #120, .T. ) ;
#301 = PERSON_AND_ORGANIZATION_ROLE ( 'design_supplier' ) ;
#302 = VECTOR ( 'NONE', #101, 1000.000000000000000 ) ;
#303 = CARTESIAN_POINT ( 'NONE',  ( 6.123233995736737686E-16, -4.999999999999993783, -6.123233995736779101E-16 ) ) ;
#304 = PRODUCT_DEFINITION_FORMATION_WITH_SPECIFIED_SOURCE ( 'ANY', '', #113, .NOT_KNOWN. ) ;
#305 = CARTESIAN_POINT ( 'NONE',  ( 4.648568767857956137E-13, -4.000000000000013323, 133.0000000000000000 ) ) ;
#306 = FACE_OUTER_BOUND ( 'NONE', #70, .T. ) ;
#307 = EDGE_CURVE ( 'NONE', #163, #97, #6, .T. ) ;
#308 = DIRECTION ( 'NONE',  ( 0.0000000000000000000, 1.000000000000000000, 0.0000000000000000000 ) ) ;
#309 = DATE_AND_TIME ( #336, #45 ) ;
#310 = CARTESIAN_POINT ( 'NONE',  ( 1.048946819290237306E-14, -4.999999999999980460, 3.004303095137821789 ) ) ;
#311 = ADVANCED_FACE ( 'NONE', ( #300 ), #73, .T. ) ;
#312 = PLANE ( 'NONE',  #14 ) ;
#313 = PERSON_AND_ORGANIZATION ( #316, #285 ) ;
#314 = DIRECTION ( 'NONE',  ( 0.0000000000000000000, 1.000000000000000000, 0.0000000000000000000 ) ) ;
#315 = DIRECTION ( 'NONE',  ( -3.491481338843133355E-15, 1.224646799147353207E-16, -1.000000000000000000 ) ) ;
#316 = PERSON ( 'UNSPECIFIED', 'UNSPECIFIED', 'UNSPECIFIED', ('UNSPECIFIED'), ('UNSPECIFIED'), ('UNSPECIFIED') ) ;
#317 = DIRECTION ( 'NONE',  ( -4.275831445896958607E-31, -1.000000000000000000, -1.224646799147353207E-16 ) ) ;
#318 = AXIS2_PLACEMENT_3D ( 'NONE', #236, #276, #47 ) ;
#319 = MANIFOLD_SOLID_BREP ( 'Corps-Déplacer/Copier1[1]', #291 ) ;
#320 = VERTEX_POINT ( 'NONE', #290 ) ;
#321 = MECHANICAL_CONTEXT ( 'NONE', #112, 'mechanical' ) ;
#322 = AXIS2_PLACEMENT_3D ( 'NONE', #237, #333, #75 ) ;
#323 = VERTEX_POINT ( 'NONE', #114 ) ;
#324 = CALENDAR_DATE ( 2021, 2, 9 ) ;
#325 = ORIENTED_EDGE ( 'NONE', *, *, #138, .F. ) ;
#326 = PERSON_AND_ORGANIZATION_ROLE ( 'creator' ) ;
#327 = CIRCLE ( 'NONE', #89, 4.999999999999980460 ) ;
#328 = DATE_TIME_ROLE ( 'creation_date' ) ;
#329 = ORIENTED_EDGE ( 'NONE', *, *, #108, .T. ) ;
#330 = CARTESIAN_POINT ( 'NONE',  ( 2.137915722948473173E-30, 4.999999999999985789, 6.123233995736747547E-16 ) ) ;
#331 = ORIENTED_EDGE ( 'NONE', *, *, #149, .T. ) ;
#332 = DIRECTION ( 'NONE',  ( 0.0000000000000000000, 1.000000000000000000, 0.0000000000000000000 ) ) ;
#333 = DIRECTION ( 'NONE',  ( 3.491481338843133355E-15, -1.224646799147353207E-16, 1.000000000000000000 ) ) ;
#334 = VECTOR ( 'NONE', #225, 999.9999999999998863 ) ;
#335 = PLANE ( 'NONE',  #215 ) ;
#336 = CALENDAR_DATE ( 2021, 2, 9 ) ;
#337 = ADVANCED_BREP_SHAPE_REPRESENTATION ( '40812', ( #319, #96, #238 ), #164 ) ;
ENDSEC;
END-ISO-10303-21;
