ISO-10303-21;
HEADER;
FILE_DESCRIPTION (( 'STEP AP203' ),
    '1' );
FILE_NAME ('40791.step',
    '2021-09-03T07:22:09',
    ( '' ),
    ( '' ),
    'SwSTEP 2.0',
    'SolidWorks 2019',
    '' );
FILE_SCHEMA (( 'CONFIG_CONTROL_DESIGN' ));
ENDSEC;

DATA;
#1 = VECTOR ( 'NONE', #63, 1000.000000000000000 ) ;
#2 =( LENGTH_UNIT ( ) NAMED_UNIT ( * ) SI_UNIT ( .MILLI., .METRE. ) );
#3 = CARTESIAN_POINT ( 'NONE',  ( 4.982497391628633002E-15, -2.374999999999992895, 1.427043970190467359 ) ) ;
#4 = APPROVAL_DATE_TIME ( #62, #221 ) ;
#5 = VECTOR ( 'NONE', #231, 1000.000000000000000 ) ;
#6 = FACE_OUTER_BOUND ( 'NONE', #81, .T. ) ;
#7 = APPROVAL_ROLE ( '' ) ;
#8 = PLANE ( 'NONE',  #23 ) ;
#9 = APPLICATION_PROTOCOL_DEFINITION ( 'international standard', 'config_control_design', 1994, #67 ) ;
#10 = ORIENTED_EDGE ( 'NONE', *, *, #86, .F. ) ;
#11 = CONICAL_SURFACE ( 'NONE', #165, 2.374999999999992895, 1.029744258676649649 ) ;
#12 = FACE_OUTER_BOUND ( 'NONE', #65, .T. ) ;
#13 = CARTESIAN_POINT ( 'NONE',  ( 1.320942741561256161E-13, -2.375000000000006661, 57.50000000000000000 ) ) ;
#14 = DATE_AND_TIME ( #325, #19 ) ;
#15 = SHAPE_DEFINITION_REPRESENTATION ( #103, #332 ) ;
#16 = CC_DESIGN_DATE_AND_TIME_ASSIGNMENT ( #89, #207, ( #258 ) ) ;
#17 = ORIENTED_EDGE ( 'NONE', *, *, #78, .F. ) ;
#18 = APPROVAL_PERSON_ORGANIZATION ( #187, #221, #323 ) ;
#19 = LOCAL_TIME ( 9, 22, 9.000000000000000000, #96 ) ;
#20 = APPROVAL_ROLE ( '' ) ;
#21 = EDGE_CURVE ( 'NONE', #246, #237, #116, .T. ) ;
#22 = CARTESIAN_POINT ( 'NONE',  ( 0.0000000000000000000, 0.0000000000000000000, 0.0000000000000000000 ) ) ;
#23 = AXIS2_PLACEMENT_3D ( 'NONE', #107, #138, #85 ) ;
#24 = PERSON ( 'UNSPECIFIED', 'UNSPECIFIED', 'UNSPECIFIED', ('UNSPECIFIED'), ('UNSPECIFIED'), ('UNSPECIFIED') ) ;
#25 = EDGE_CURVE ( 'NONE', #297, #112, #273, .T. ) ;
#26 = FACE_OUTER_BOUND ( 'NONE', #40, .T. ) ;
#27 = AXIS2_PLACEMENT_3D ( 'NONE', #327, #298, #71 ) ;
#28 =( NAMED_UNIT ( * ) PLANE_ANGLE_UNIT ( ) SI_UNIT ( $, .RADIAN. ) );
#29 = APPROVAL ( #105, 'UNSPECIFIED' ) ;
#30 = ORIENTED_EDGE ( 'NONE', *, *, #78, .T. ) ;
#31 = CARTESIAN_POINT ( 'NONE',  ( 2.025059176529017346E-13, -7.102951435054648059E-15, 58.00000000000000000 ) ) ;
#32 = CIRCLE ( 'NONE', #174, 1.875000000000000222 ) ;
#33 = ORIENTED_EDGE ( 'NONE', *, *, #72, .T. ) ;
#34 = DIRECTION ( 'NONE',  ( 0.0000000000000000000, 1.000000000000000000, 0.0000000000000000000 ) ) ;
#35 = ORIENTED_EDGE ( 'NONE', *, *, #217, .T. ) ;
#36 = ORIENTED_EDGE ( 'NONE', *, *, #25, .F. ) ;
#37 = DIRECTION ( 'NONE',  ( -3.491481338843133355E-15, 1.224646799147353207E-16, -1.000000000000000000 ) ) ;
#38 = CLOSED_SHELL ( 'NONE', ( #279, #50, #95, #179, #83, #266 ) ) ;
#39 = CONICAL_SURFACE ( 'NONE', #281, 2.374999999999992895, 1.029744258676649649 ) ;
#40 = EDGE_LOOP ( 'NONE', ( #166, #79, #289, #186 ) ) ;
#41 = PERSON_AND_ORGANIZATION_ROLE ( 'design_owner' ) ;
#42 = FACE_OUTER_BOUND ( 'NONE', #319, .T. ) ;
#43 = ORIENTED_EDGE ( 'NONE', *, *, #140, .F. ) ;
#44 = CYLINDRICAL_SURFACE ( 'NONE', #170, 2.374999999999994227 ) ;
#45 = EDGE_CURVE ( 'NONE', #233, #64, #87, .T. ) ;
#46 = DIRECTION ( 'NONE',  ( 3.243671485283775512E-31, 1.000000000000000000, 9.130123557772696684E-17 ) ) ;
#47 = ORIENTED_EDGE ( 'NONE', *, *, #245, .T. ) ;
#48 = AXIS2_PLACEMENT_3D ( 'NONE', #31, #184, #238 ) ;
#49 = ORIENTED_EDGE ( 'NONE', *, *, #309, .F. ) ;
#50 = ADVANCED_FACE ( 'NONE', ( #193 ), #220, .T. ) ;
#51 = CARTESIAN_POINT ( 'NONE',  ( 4.982497391628633791E-15, -1.747624830336286823E-16, 1.427043970190467581 ) ) ;
#52 = AXIS2_PLACEMENT_3D ( 'NONE', #126, #284, #127 ) ;
#53 = CARTESIAN_POINT ( 'NONE',  ( 0.0000000000000000000, 0.0000000000000000000, 0.0000000000000000000 ) ) ;
#54 = CARTESIAN_POINT ( 'NONE',  ( 1.015509968400526728E-30, 2.374999999999997780, 2.908536147974961248E-16 ) ) ;
#55 = APPLICATION_CONTEXT ( 'configuration controlled 3d designs of mechanical parts and assemblies' ) ;
#56 = ADVANCED_FACE ( 'NONE', ( #312 ), #74, .T. ) ;
#57 = MANIFOLD_SOLID_BREP ( 'Corps-Déplacer/Copier1[2]', #243 ) ;
#58 = ORIENTED_EDGE ( 'NONE', *, *, #140, .T. ) ;
#59 = CARTESIAN_POINT ( 'NONE',  ( 6.284666409917640040E-14, -2.204364238465235428E-15, 18.00000000000000000 ) ) ;
#60 = CC_DESIGN_APPROVAL ( #221, ( #161 ) ) ;
#61 = DIRECTION ( 'NONE',  ( -3.491481338843133355E-15, 1.224646799147353207E-16, -1.000000000000000000 ) ) ;
#62 = DATE_AND_TIME ( #181, #202 ) ;
#63 = DIRECTION ( 'NONE',  ( -3.491481338843133355E-15, 1.224646799147353207E-16, -1.000000000000000000 ) ) ;
#64 = VERTEX_POINT ( 'NONE', #302 ) ;
#65 = EDGE_LOOP ( 'NONE', ( #104, #136, #215 ) ) ;
#66 = CARTESIAN_POINT ( 'NONE',  ( 3.420543436019998743E-14, -2.374999999999997335, 18.00000000000000000 ) ) ;
#67 = APPLICATION_CONTEXT ( 'configuration controlled 3d designs of mechanical parts and assemblies' ) ;
#68 = ORIENTED_EDGE ( 'NONE', *, *, #268, .T. ) ;
#69 = DIRECTION ( 'NONE',  ( 0.0000000000000000000, 1.000000000000000000, 0.0000000000000000000 ) ) ;
#70 = ORIENTED_EDGE ( 'NONE', *, *, #45, .T. ) ;
#71 = DIRECTION ( 'NONE',  ( 0.0000000000000000000, 1.000000000000000000, 0.0000000000000000000 ) ) ;
#72 = EDGE_CURVE ( 'NONE', #167, #335, #227, .T. ) ;
#73 = AXIS2_PLACEMENT_3D ( 'NONE', #156, #129, #173 ) ;
#74 = CYLINDRICAL_SURFACE ( 'NONE', #219, 2.374999999999994227 ) ;
#75 = PLANE ( 'NONE',  #52 ) ;
#76 = LINE ( 'NONE', #131, #313 ) ;
#77 = CARTESIAN_POINT ( 'NONE',  ( 0.0000000000000000000, 0.0000000000000000000, 0.0000000000000000000 ) ) ;
#78 = EDGE_CURVE ( 'NONE', #112, #297, #147, .T. ) ;
#79 = ORIENTED_EDGE ( 'NONE', *, *, #101, .T. ) ;
#80 = VECTOR ( 'NONE', #328, 999.9999999999998863 ) ;
#81 = EDGE_LOOP ( 'NONE', ( #132, #240 ) ) ;
#82 = PERSON_AND_ORGANIZATION ( #24, #234 ) ;
#83 = ADVANCED_FACE ( 'NONE', ( #191 ), #196, .T. ) ;
#84 = EDGE_LOOP ( 'NONE', ( #271, #47, #35, #164 ) ) ;
#85 = DIRECTION ( 'NONE',  ( 4.275831445896958607E-31, 1.000000000000000000, 1.224646799147353207E-16 ) ) ;
#86 = EDGE_CURVE ( 'NONE', #297, #233, #274, .T. ) ;
#87 = CIRCLE ( 'NONE', #141, 2.374999999999992895 ) ;
#88 = APPROVAL_PERSON_ORGANIZATION ( #113, #125, #20 ) ;
#89 = DATE_AND_TIME ( #272, #306 ) ;
#90 = COORDINATED_UNIVERSAL_TIME_OFFSET ( 1, 0, .AHEAD. ) ;
#91 = CARTESIAN_POINT ( 'NONE',  ( 5.273351006426130557E-15, 2.374999999999992895, 1.427043970190467803 ) ) ;
#92 = APPROVAL_PERSON_ORGANIZATION ( #188, #29, #7 ) ;
#93 = ORIENTED_EDGE ( 'NONE', *, *, #317, .T. ) ;
#94 = DIRECTION ( 'NONE',  ( 0.0000000000000000000, 1.000000000000000000, 0.0000000000000000000 ) ) ;
#95 = ADVANCED_FACE ( 'NONE', ( #42 ), #143, .F. ) ;
#96 = COORDINATED_UNIVERSAL_TIME_OFFSET ( 1, 0, .AHEAD. ) ;
#97 = CALENDAR_DATE ( 2021, 3, 9 ) ;
#98 = DIRECTION ( 'NONE',  ( -3.491481338843133355E-15, 1.224646799147353207E-16, -1.000000000000000000 ) ) ;
#99 = SECURITY_CLASSIFICATION ( '', '', #331 ) ;
#100 = LINE ( 'NONE', #308, #264 ) ;
#101 = EDGE_CURVE ( 'NONE', #237, #253, #208, .T. ) ;
#102 = AXIS2_PLACEMENT_3D ( 'NONE', #330, #183, #159 ) ;
#103 = PRODUCT_DEFINITION_SHAPE ( 'NONE', 'NONE',  #258 ) ;
#104 = ORIENTED_EDGE ( 'NONE', *, *, #317, .F. ) ;
#105 = APPROVAL_STATUS ( 'not_yet_approved' ) ;
#106 = CARTESIAN_POINT ( 'NONE',  ( 2.007601769834801742E-13, -7.041719095097280485E-15, 57.50000000000000000 ) ) ;
#107 = CARTESIAN_POINT ( 'NONE',  ( 2.025059176529017346E-13, 1.406024796245481244E-32, 58.00000000000000000 ) ) ;
#108 = CIRCLE ( 'NONE', #27, 2.374999999999995115 ) ;
#109 = EDGE_LOOP ( 'NONE', ( #30, #149, #280, #43 ) ) ;
#110 = COORDINATED_UNIVERSAL_TIME_OFFSET ( 1, 0, .AHEAD. ) ;
#111 = DIRECTION ( 'NONE',  ( -3.491481338843133355E-15, 1.224646799147353207E-16, -1.000000000000000000 ) ) ;
#112 = VERTEX_POINT ( 'NONE', #225 ) ;
#113 = PERSON_AND_ORGANIZATION ( #24, #234 ) ;
#114 = CC_DESIGN_APPROVAL ( #29, ( #258 ) ) ;
#115 = DESIGN_CONTEXT ( 'detailed design', #67, 'design' ) ;
#116 = LINE ( 'NONE', #255, #80 ) ;
#117 = EDGE_CURVE ( 'NONE', #253, #335, #203, .T. ) ;
#118 = DIRECTION ( 'NONE',  ( -3.491481338843133355E-15, 1.224646799147353207E-16, -1.000000000000000000 ) ) ;
#119 = EDGE_LOOP ( 'NONE', ( #324, #198, #311, #180 ) ) ;
#120 = FACE_OUTER_BOUND ( 'NONE', #228, .T. ) ;
#121 = AXIS2_PLACEMENT_3D ( 'NONE', #216, #168, #69 ) ;
#122 = AXIS2_PLACEMENT_3D ( 'NONE', #249, #276, #236 ) ;
#123 = ORIENTED_EDGE ( 'NONE', *, *, #275, .F. ) ;
#124 = CARTESIAN_POINT ( 'NONE',  ( 4.982497391628633791E-15, -1.747624830336286823E-16, 1.427043970190467581 ) ) ;
#125 = APPROVAL ( #144, 'UNSPECIFIED' ) ;
#126 = CARTESIAN_POINT ( 'NONE',  ( 6.284666409917640040E-14, 1.780964741910948930E-32, 18.00000000000000000 ) ) ;
#127 = DIRECTION ( 'NONE',  ( -4.275831445896958607E-31, -1.000000000000000000, -1.224646799147353207E-16 ) ) ;
#128 = CONICAL_SURFACE ( 'NONE', #321, 1.875000000000000222, 0.7853981633974476129 ) ;
#129 = DIRECTION ( 'NONE',  ( -3.491481338843133355E-15, 1.224646799147353207E-16, -1.000000000000000000 ) ) ;
#130 = DIRECTION ( 'NONE',  ( 4.275831445896958607E-31, 1.000000000000000000, 1.224646799147353207E-16 ) ) ;
#131 = CARTESIAN_POINT ( 'NONE',  ( 2.908536147974951387E-16, -2.374999999999997780, -2.908536147974971109E-16 ) ) ;
#132 = ORIENTED_EDGE ( 'NONE', *, *, #150, .F. ) ;
#133 = LOCAL_TIME ( 9, 22, 9.000000000000000000, #110 ) ;
#134 = DIRECTION ( 'NONE',  ( 0.0000000000000000000, 1.000000000000000000, 0.0000000000000000000 ) ) ;
#135 = CC_DESIGN_PERSON_AND_ORGANIZATION_ASSIGNMENT ( #82, #162, ( #258 ) ) ;
#136 = ORIENTED_EDGE ( 'NONE', *, *, #275, .T. ) ;
#137 = DIRECTION ( 'NONE',  ( 1.000000000000000000, 0.0000000000000000000, 0.0000000000000000000 ) ) ;
#138 = DIRECTION ( 'NONE',  ( -3.491481338843133355E-15, 1.224646799147353207E-16, -1.000000000000000000 ) ) ;
#139 = CARTESIAN_POINT ( 'NONE',  ( 2.908536147974946950E-16, -2.374999999999994227, -2.908536147974967164E-16 ) ) ;
#140 = EDGE_CURVE ( 'NONE', #112, #64, #100, .T. ) ;
#141 = AXIS2_PLACEMENT_3D ( 'NONE', #277, #118, #46 ) ;
#142 = PERSON_AND_ORGANIZATION_ROLE ( 'classification_officer' ) ;
#143 = PLANE ( 'NONE',  #122 ) ;
#144 = APPROVAL_STATUS ( 'not_yet_approved' ) ;
#145 = VERTEX_POINT ( 'NONE', #53 ) ;
#146 = DIRECTION ( 'NONE',  ( -3.491481338843133355E-15, 1.224646799147353207E-16, -1.000000000000000000 ) ) ;
#147 = CIRCLE ( 'NONE', #336, 2.374999999999995115 ) ;
#148 = EDGE_CURVE ( 'NONE', #237, #167, #76, .T. ) ;
#149 = ORIENTED_EDGE ( 'NONE', *, *, #86, .T. ) ;
#150 = EDGE_CURVE ( 'NONE', #204, #246, #32, .T. ) ;
#151 = AXIS2_PLACEMENT_3D ( 'NONE', #77, #177, #130 ) ;
#152 = DIRECTION ( 'NONE',  ( -3.491481338843133355E-15, 1.224646799147353207E-16, -1.000000000000000000 ) ) ;
#153 = DIRECTION ( 'NONE',  ( 3.491481338843133355E-15, -1.224646799147353207E-16, 1.000000000000000000 ) ) ;
#154 = LINE ( 'NONE', #176, #211 ) ;
#155 = LINE ( 'NONE', #265, #5 ) ;
#156 = CARTESIAN_POINT ( 'NONE',  ( 4.982497391628633791E-15, -1.747624830336286823E-16, 1.427043970190467581 ) ) ;
#157 = DIRECTION ( 'NONE',  ( -3.491481338843133355E-15, 1.224646799147353207E-16, -1.000000000000000000 ) ) ;
#158 = PRODUCT ( '40791', '40791', '', ( #242 ) ) ;
#159 = DIRECTION ( 'NONE',  ( 4.275831445896958607E-31, 1.000000000000000000, 1.224646799147353207E-16 ) ) ;
#160 = APPROVAL_DATE_TIME ( #185, #29 ) ;
#161 = PRODUCT_DEFINITION_FORMATION_WITH_SPECIFIED_SOURCE ( 'ANY', '', #158, .NOT_KNOWN. ) ;
#162 = PERSON_AND_ORGANIZATION_ROLE ( 'creator' ) ;
#163 = CARTESIAN_POINT ( 'NONE',  ( 6.284666409917640040E-14, -2.204364238465235428E-15, 18.00000000000000000 ) ) ;
#164 = ORIENTED_EDGE ( 'NONE', *, *, #101, .F. ) ;
#165 = AXIS2_PLACEMENT_3D ( 'NONE', #51, #153, #226 ) ;
#166 = ORIENTED_EDGE ( 'NONE', *, *, #148, .F. ) ;
#167 = VERTEX_POINT ( 'NONE', #261 ) ;
#168 = DIRECTION ( 'NONE',  ( -3.491481338843133355E-15, 1.224646799147353207E-16, -1.000000000000000000 ) ) ;
#169 = ORIENTED_EDGE ( 'NONE', *, *, #45, .F. ) ;
#170 = AXIS2_PLACEMENT_3D ( 'NONE', #194, #251, #218 ) ;
#171 = DIRECTION ( 'NONE',  ( 1.903218546456022717E-15, 0.8571673007021097801, 0.5150380749100585964 ) ) ;
#172 = PRODUCT_RELATED_PRODUCT_CATEGORY ( 'detail', '', ( #158 ) ) ;
#173 = DIRECTION ( 'NONE',  ( 3.243671485283775512E-31, 1.000000000000000000, 9.130123557772696684E-17 ) ) ;
#174 = AXIS2_PLACEMENT_3D ( 'NONE', #315, #304, #263 ) ;
#175 = DIRECTION ( 'NONE',  ( 0.0000000000000000000, 0.0000000000000000000, 1.000000000000000000 ) ) ;
#176 = CARTESIAN_POINT ( 'NONE',  ( 4.982497391628633002E-15, -2.374999999999992895, 1.427043970190467359 ) ) ;
#177 = DIRECTION ( 'NONE',  ( -3.491481338843133355E-15, 1.224646799147353207E-16, -1.000000000000000000 ) ) ;
#178 = CIRCLE ( 'NONE', #48, 1.875000000000000222 ) ;
#179 = ADVANCED_FACE ( 'NONE', ( #26 ), #310, .T. ) ;
#180 = ORIENTED_EDGE ( 'NONE', *, *, #217, .F. ) ;
#181 = CALENDAR_DATE ( 2021, 3, 9 ) ;
#182 = CC_DESIGN_PERSON_AND_ORGANIZATION_ASSIGNMENT ( #222, #282, ( #161 ) ) ;
#183 = DIRECTION ( 'NONE',  ( -3.491481338843133355E-15, 1.224646799147353207E-16, -1.000000000000000000 ) ) ;
#184 = DIRECTION ( 'NONE',  ( -3.491481338843133355E-15, 1.224646799147353207E-16, -1.000000000000000000 ) ) ;
#185 = DATE_AND_TIME ( #314, #133 ) ;
#186 = ORIENTED_EDGE ( 'NONE', *, *, #72, .F. ) ;
#187 = PERSON_AND_ORGANIZATION ( #24, #234 ) ;
#188 = PERSON_AND_ORGANIZATION ( #24, #234 ) ;
#189 = DIRECTION ( 'NONE',  ( 0.0000000000000000000, 1.000000000000000000, 0.0000000000000000000 ) ) ;
#190 = FACE_OUTER_BOUND ( 'NONE', #119, .T. ) ;
#191 = FACE_OUTER_BOUND ( 'NONE', #84, .T. ) ;
#192 = AXIS2_PLACEMENT_3D ( 'NONE', #292, #37, #241 ) ;
#193 = FACE_OUTER_BOUND ( 'NONE', #322, .T. ) ;
#194 = CARTESIAN_POINT ( 'NONE',  ( 0.0000000000000000000, 0.0000000000000000000, 0.0000000000000000000 ) ) ;
#195 = COORDINATED_UNIVERSAL_TIME_OFFSET ( 1, 0, .AHEAD. ) ;
#196 = CONICAL_SURFACE ( 'NONE', #294, 1.875000000000000222, 0.7853981633974476129 ) ;
#197 = UNCERTAINTY_MEASURE_WITH_UNIT (LENGTH_MEASURE( 1.000000000000000082E-05 ), #2, 'distance_accuracy_value', 'NONE');
#198 = ORIENTED_EDGE ( 'NONE', *, *, #21, .T. ) ;
#199 = DIRECTION ( 'NONE',  ( -3.243671485283775512E-31, -1.000000000000000000, -9.130123557772696684E-17 ) ) ;
#200 = DIRECTION ( 'NONE',  ( 4.275831445896958607E-31, 1.000000000000000000, 1.224646799147353207E-16 ) ) ;
#201 =( NAMED_UNIT ( * ) SI_UNIT ( $, .STERADIAN. ) SOLID_ANGLE_UNIT ( ) );
#202 = LOCAL_TIME ( 9, 22, 9.000000000000000000, #90 ) ;
#203 = LINE ( 'NONE', #54, #260 ) ;
#204 = VERTEX_POINT ( 'NONE', #287 ) ;
#205 = FACE_OUTER_BOUND ( 'NONE', #259, .T. ) ;
#206 = CC_DESIGN_PERSON_AND_ORGANIZATION_ASSIGNMENT ( #210, #41, ( #158 ) ) ;
#207 = DATE_TIME_ROLE ( 'creation_date' ) ;
#208 = CIRCLE ( 'NONE', #254, 2.375000000000000000 ) ;
#209 = ORIENTED_EDGE ( 'NONE', *, *, #148, .T. ) ;
#210 = PERSON_AND_ORGANIZATION ( #24, #234 ) ;
#211 = VECTOR ( 'NONE', #286, 1000.000000000000000 ) ;
#212 = CARTESIAN_POINT ( 'NONE',  ( 2.025059176529017346E-13, -7.102951435054648059E-15, 58.00000000000000000 ) ) ;
#213 = ORIENTED_EDGE ( 'NONE', *, *, #117, .F. ) ;
#214 = APPROVAL_STATUS ( 'not_yet_approved' ) ;
#215 = ORIENTED_EDGE ( 'NONE', *, *, #333, .T. ) ;
#216 = CARTESIAN_POINT ( 'NONE',  ( 6.284666409917640040E-14, -2.204364238465235428E-15, 18.00000000000000000 ) ) ;
#217 = EDGE_CURVE ( 'NONE', #204, #253, #155, .T. ) ;
#218 = DIRECTION ( 'NONE',  ( 4.275831445896958607E-31, 1.000000000000000000, 1.224646799147353207E-16 ) ) ;
#219 = AXIS2_PLACEMENT_3D ( 'NONE', #22, #98, #200 ) ;
#220 = CYLINDRICAL_SURFACE ( 'NONE', #102, 2.374999999999997780 ) ;
#221 = APPROVAL ( #214, 'UNSPECIFIED' ) ;
#222 = PERSON_AND_ORGANIZATION ( #24, #234 ) ;
#223 = ORIENTED_EDGE ( 'NONE', *, *, #25, .T. ) ;
#224 = DIRECTION ( 'NONE',  ( 3.491481338843133355E-15, -1.224646799147353207E-16, 1.000000000000000000 ) ) ;
#225 = CARTESIAN_POINT ( 'NONE',  ( 6.284666409917640040E-14, 2.374999999999992895, 18.00000000000000000 ) ) ;
#226 = DIRECTION ( 'NONE',  ( -3.243671485283775512E-31, -1.000000000000000000, -9.130123557772696684E-17 ) ) ;
#227 = CIRCLE ( 'NONE', #291, 2.374999999999995115 ) ;
#228 = EDGE_LOOP ( 'NONE', ( #10, #223, #58, #169 ) ) ;
#229 = CC_DESIGN_APPROVAL ( #125, ( #99 ) ) ;
#230 = CARTESIAN_POINT ( 'NONE',  ( 6.284666409917640040E-14, 2.374999999999992895, 18.00000000000000000 ) ) ;
#231 = DIRECTION ( 'NONE',  ( -2.468850131082267316E-15, 0.7071067811865471286, -0.7071067811865479058 ) ) ;
#232 = CC_DESIGN_DATE_AND_TIME_ASSIGNMENT ( #14, #247, ( #99 ) ) ;
#233 = VERTEX_POINT ( 'NONE', #3 ) ;
#234 = ORGANIZATION ( 'UNSPECIFIED', 'UNSPECIFIED', '' ) ;
#235 = CARTESIAN_POINT ( 'NONE',  ( 2.018932847630097445E-13, -1.875000000000007327, 58.00000000000000000 ) ) ;
#236 = DIRECTION ( 'NONE',  ( -4.275831445896958607E-31, -1.000000000000000000, -1.224646799147353207E-16 ) ) ;
#237 = VERTEX_POINT ( 'NONE', #13 ) ;
#238 = DIRECTION ( 'NONE',  ( 0.0000000000000000000, 1.000000000000000000, 0.0000000000000000000 ) ) ;
#239 = DIRECTION ( 'NONE',  ( -3.491481338843133355E-15, 1.224646799147353207E-16, -1.000000000000000000 ) ) ;
#240 = ORIENTED_EDGE ( 'NONE', *, *, #245, .F. ) ;
#241 = DIRECTION ( 'NONE',  ( 0.0000000000000000000, 1.000000000000000000, 0.0000000000000000000 ) ) ;
#242 = MECHANICAL_CONTEXT ( 'NONE', #55, 'mechanical' ) ;
#243 = CLOSED_SHELL ( 'NONE', ( #56, #270, #337, #305, #329 ) ) ;
#244 =( GEOMETRIC_REPRESENTATION_CONTEXT ( 3 ) GLOBAL_UNCERTAINTY_ASSIGNED_CONTEXT ( ( #197 ) ) GLOBAL_UNIT_ASSIGNED_CONTEXT ( ( #2, #28, #201 ) ) REPRESENTATION_CONTEXT ( 'NONE', 'WORKASPACE' ) );
#245 = EDGE_CURVE ( 'NONE', #246, #204, #178, .T. ) ;
#246 = VERTEX_POINT ( 'NONE', #235 ) ;
#247 = DATE_TIME_ROLE ( 'classification_date' ) ;
#248 = ORIENTED_EDGE ( 'NONE', *, *, #309, .T. ) ;
#249 = CARTESIAN_POINT ( 'NONE',  ( 6.284666409917640040E-14, 1.780964741910948930E-32, 18.00000000000000000 ) ) ;
#250 = DATE_AND_TIME ( #97, #288 ) ;
#251 = DIRECTION ( 'NONE',  ( -3.491481338843133355E-15, 1.224646799147353207E-16, -1.000000000000000000 ) ) ;
#252 = PERSON_AND_ORGANIZATION_ROLE ( 'creator' ) ;
#253 = VERTEX_POINT ( 'NONE', #290 ) ;
#254 = AXIS2_PLACEMENT_3D ( 'NONE', #106, #318, #301 ) ;
#255 = CARTESIAN_POINT ( 'NONE',  ( 2.027355389277418599E-13, -1.875000000000007327, 58.00000000000000000 ) ) ;
#256 = PERSON_AND_ORGANIZATION ( #24, #234 ) ;
#257 = LINE ( 'NONE', #91, #269 ) ;
#258 = PRODUCT_DEFINITION ( 'UNKNOWN', '', #161, #115 ) ;
#259 = EDGE_LOOP ( 'NONE', ( #123, #93, #70 ) ) ;
#260 = VECTOR ( 'NONE', #152, 1000.000000000000000 ) ;
#261 = CARTESIAN_POINT ( 'NONE',  ( 1.320942741561257170E-13, -2.374999999999997335, 18.00000000000000000 ) ) ;
#262 = CARTESIAN_POINT ( 'NONE',  ( 0.0000000000000000000, 0.0000000000000000000, 0.0000000000000000000 ) ) ;
#263 = DIRECTION ( 'NONE',  ( 0.0000000000000000000, 1.000000000000000000, 0.0000000000000000000 ) ) ;
#264 = VECTOR ( 'NONE', #157, 1000.000000000000000 ) ;
#265 = CARTESIAN_POINT ( 'NONE',  ( 2.025059176529017346E-13, 1.874999999999992895, 58.00000000000000000 ) ) ;
#266 = ADVANCED_FACE ( 'NONE', ( #6 ), #8, .F. ) ;
#267 = DIRECTION ( 'NONE',  ( -3.491481338843133355E-15, 1.224646799147353207E-16, -1.000000000000000000 ) ) ;
#268 = EDGE_CURVE ( 'NONE', #253, #237, #283, .T. ) ;
#269 = VECTOR ( 'NONE', #171, 999.9999999999998863 ) ;
#270 = ADVANCED_FACE ( 'NONE', ( #12 ), #39, .T. ) ;
#271 = ORIENTED_EDGE ( 'NONE', *, *, #21, .F. ) ;
#272 = CALENDAR_DATE ( 2021, 3, 9 ) ;
#273 = CIRCLE ( 'NONE', #121, 2.374999999999995115 ) ;
#274 = LINE ( 'NONE', #139, #1 ) ;
#275 = EDGE_CURVE ( 'NONE', #145, #64, #257, .T. ) ;
#276 = DIRECTION ( 'NONE',  ( 3.491481338843133355E-15, -1.224646799147353207E-16, 1.000000000000000000 ) ) ;
#277 = CARTESIAN_POINT ( 'NONE',  ( 4.982497391628633791E-15, -1.747624830336286823E-16, 1.427043970190467581 ) ) ;
#278 = MANIFOLD_SOLID_BREP ( 'Corps-Déplacer/Copier1[1]', #38 ) ;
#279 = ADVANCED_FACE ( 'NONE', ( #190 ), #128, .T. ) ;
#280 = ORIENTED_EDGE ( 'NONE', *, *, #333, .F. ) ;
#281 = AXIS2_PLACEMENT_3D ( 'NONE', #124, #224, #199 ) ;
#282 = PERSON_AND_ORGANIZATION_ROLE ( 'design_supplier' ) ;
#283 = CIRCLE ( 'NONE', #192, 2.375000000000000000 ) ;
#284 = DIRECTION ( 'NONE',  ( 3.491481338843133355E-15, -1.224646799147353207E-16, 1.000000000000000000 ) ) ;
#285 = FACE_OUTER_BOUND ( 'NONE', #316, .T. ) ;
#286 = DIRECTION ( 'NONE',  ( 1.798245827342160317E-15, -0.8571673007021098911, 0.5150380749100582634 ) ) ;
#287 = CARTESIAN_POINT ( 'NONE',  ( 2.025059176529017346E-13, 1.874999999999992895, 58.00000000000000000 ) ) ;
#288 = LOCAL_TIME ( 9, 22, 9.000000000000000000, #195 ) ;
#289 = ORIENTED_EDGE ( 'NONE', *, *, #117, .T. ) ;
#290 = CARTESIAN_POINT ( 'NONE',  ( 2.007601769834801742E-13, 2.374999999999992895, 57.50000000000000000 ) ) ;
#291 = AXIS2_PLACEMENT_3D ( 'NONE', #59, #111, #134 ) ;
#292 = CARTESIAN_POINT ( 'NONE',  ( 2.007601769834801742E-13, -7.041719095097280485E-15, 57.50000000000000000 ) ) ;
#293 = CC_DESIGN_PERSON_AND_ORGANIZATION_ASSIGNMENT ( #256, #252, ( #161 ) ) ;
#294 = AXIS2_PLACEMENT_3D ( 'NONE', #212, #239, #189 ) ;
#295 = CARTESIAN_POINT ( 'NONE',  ( 2.025059176529017346E-13, -7.102951435054648059E-15, 58.00000000000000000 ) ) ;
#296 = APPROVAL_DATE_TIME ( #250, #125 ) ;
#297 = VERTEX_POINT ( 'NONE', #66 ) ;
#298 = DIRECTION ( 'NONE',  ( -3.491481338843133355E-15, 1.224646799147353207E-16, -1.000000000000000000 ) ) ;
#299 = CIRCLE ( 'NONE', #73, 2.374999999999992895 ) ;
#300 = CC_DESIGN_SECURITY_CLASSIFICATION ( #99, ( #161 ) ) ;
#301 = DIRECTION ( 'NONE',  ( 0.0000000000000000000, 1.000000000000000000, 0.0000000000000000000 ) ) ;
#302 = CARTESIAN_POINT ( 'NONE',  ( 5.273351006426130557E-15, 2.374999999999992895, 1.427043970190467803 ) ) ;
#303 = CC_DESIGN_PERSON_AND_ORGANIZATION_ASSIGNMENT ( #334, #142, ( #99 ) ) ;
#304 = DIRECTION ( 'NONE',  ( -3.491481338843133355E-15, 1.224646799147353207E-16, -1.000000000000000000 ) ) ;
#305 = ADVANCED_FACE ( 'NONE', ( #120 ), #44, .T. ) ;
#306 = LOCAL_TIME ( 9, 22, 9.000000000000000000, #320 ) ;
#307 = APPLICATION_PROTOCOL_DEFINITION ( 'international standard', 'config_control_design', 1994, #55 ) ;
#308 = CARTESIAN_POINT ( 'NONE',  ( 1.015509968400525151E-30, 2.374999999999994227, 2.908536147974956810E-16 ) ) ;
#309 = EDGE_CURVE ( 'NONE', #335, #167, #108, .T. ) ;
#310 = CYLINDRICAL_SURFACE ( 'NONE', #151, 2.374999999999997780 ) ;
#311 = ORIENTED_EDGE ( 'NONE', *, *, #268, .F. ) ;
#312 = FACE_OUTER_BOUND ( 'NONE', #109, .T. ) ;
#313 = VECTOR ( 'NONE', #267, 1000.000000000000000 ) ;
#314 = CALENDAR_DATE ( 2021, 3, 9 ) ;
#315 = CARTESIAN_POINT ( 'NONE',  ( 2.025059176529017346E-13, -7.102951435054648059E-15, 58.00000000000000000 ) ) ;
#316 = EDGE_LOOP ( 'NONE', ( #17, #36 ) ) ;
#317 = EDGE_CURVE ( 'NONE', #145, #233, #154, .T. ) ;
#318 = DIRECTION ( 'NONE',  ( -3.491481338843133355E-15, 1.224646799147353207E-16, -1.000000000000000000 ) ) ;
#319 = EDGE_LOOP ( 'NONE', ( #248, #33 ) ) ;
#320 = COORDINATED_UNIVERSAL_TIME_OFFSET ( 1, 0, .AHEAD. ) ;
#321 = AXIS2_PLACEMENT_3D ( 'NONE', #295, #146, #94 ) ;
#322 = EDGE_LOOP ( 'NONE', ( #68, #209, #49, #213 ) ) ;
#323 = APPROVAL_ROLE ( '' ) ;
#324 = ORIENTED_EDGE ( 'NONE', *, *, #150, .T. ) ;
#325 = CALENDAR_DATE ( 2021, 3, 9 ) ;
#326 = AXIS2_PLACEMENT_3D ( 'NONE', #262, #175, #137 ) ;
#327 = CARTESIAN_POINT ( 'NONE',  ( 6.284666409917640040E-14, -2.204364238465235428E-15, 18.00000000000000000 ) ) ;
#328 = DIRECTION ( 'NONE',  ( -2.382254525458718258E-15, -0.7071067811865469066, -0.7071067811865482389 ) ) ;
#329 = ADVANCED_FACE ( 'NONE', ( #285 ), #75, .T. ) ;
#330 = CARTESIAN_POINT ( 'NONE',  ( 0.0000000000000000000, 0.0000000000000000000, 0.0000000000000000000 ) ) ;
#331 = SECURITY_CLASSIFICATION_LEVEL ( 'unclassified' ) ;
#332 = ADVANCED_BREP_SHAPE_REPRESENTATION ( '40791', ( #278, #57, #326 ), #244 ) ;
#333 = EDGE_CURVE ( 'NONE', #64, #233, #299, .T. ) ;
#334 = PERSON_AND_ORGANIZATION ( #24, #234 ) ;
#335 = VERTEX_POINT ( 'NONE', #230 ) ;
#336 = AXIS2_PLACEMENT_3D ( 'NONE', #163, #61, #34 ) ;
#337 = ADVANCED_FACE ( 'NONE', ( #205 ), #11, .T. ) ;
ENDSEC;
END-ISO-10303-21;
