ISO-10303-21;
HEADER;
FILE_DESCRIPTION (( 'STEP AP203' ),
    '1' );
FILE_NAME ('40790.step',
    '2021-09-03T07:22:09',
    ( '' ),
    ( '' ),
    'SwSTEP 2.0',
    'SolidWorks 2019',
    '' );
FILE_SCHEMA (( 'CONFIG_CONTROL_DESIGN' ));
ENDSEC;

DATA;
#1 = CC_DESIGN_PERSON_AND_ORGANIZATION_ASSIGNMENT ( #336, #18, ( #298 ) ) ;
#2 = VECTOR ( 'NONE', #282, 1000.000000000000000 ) ;
#3 = VERTEX_POINT ( 'NONE', #262 ) ;
#4 = APPLICATION_PROTOCOL_DEFINITION ( 'international standard', 'config_control_design', 1994, #200 ) ;
#5 = CARTESIAN_POINT ( 'NONE',  ( 4.772708027770585762E-15, -2.274999999999994138, 1.366957908287710799 ) ) ;
#6 = APPROVAL_PERSON_ORGANIZATION ( #95, #135, #277 ) ;
#7 = DIRECTION ( 'NONE',  ( 0.0000000000000000000, 1.000000000000000000, 0.0000000000000000000 ) ) ;
#8 = PERSON_AND_ORGANIZATION ( #224, #61 ) ;
#9 = DIRECTION ( 'NONE',  ( -3.491481338843133355E-15, 1.224646799147353207E-16, -1.000000000000000000 ) ) ;
#10 = COORDINATED_UNIVERSAL_TIME_OFFSET ( 1, 0, .AHEAD. ) ;
#11 = CC_DESIGN_DATE_AND_TIME_ASSIGNMENT ( #329, #17, ( #233 ) ) ;
#12 = AXIS2_PLACEMENT_3D ( 'NONE', #172, #71, #124 ) ;
#13 = ORIENTED_EDGE ( 'NONE', *, *, #223, .F. ) ;
#14 = LOCAL_TIME ( 9, 22, 9.000000000000000000, #257 ) ;
#15 = CARTESIAN_POINT ( 'NONE',  ( 2.025059176529017346E-13, -7.102951435054648059E-15, 58.00000000000000000 ) ) ;
#16 = DIRECTION ( 'NONE',  ( -3.491481338843133355E-15, 1.224646799147353207E-16, -1.000000000000000000 ) ) ;
#17 = DATE_TIME_ROLE ( 'classification_date' ) ;
#18 = PERSON_AND_ORGANIZATION_ROLE ( 'creator' ) ;
#19 = VERTEX_POINT ( 'NONE', #128 ) ;
#20 = APPROVAL_DATE_TIME ( #176, #135 ) ;
#21 = EDGE_CURVE ( 'NONE', #3, #328, #208, .T. ) ;
#22 = CARTESIAN_POINT ( 'NONE',  ( 2.025059176529017346E-13, -7.102951435054648059E-15, 58.00000000000000000 ) ) ;
#23 = AXIS2_PLACEMENT_3D ( 'NONE', #144, #247, #242 ) ;
#24 = AXIS2_PLACEMENT_3D ( 'NONE', #246, #9, #117 ) ;
#25 = APPROVAL ( #121, 'UNSPECIFIED' ) ;
#26 = ORIENTED_EDGE ( 'NONE', *, *, #189, .T. ) ;
#27 = CYLINDRICAL_SURFACE ( 'NONE', #119, 2.274999999999995026 ) ;
#28 = AXIS2_PLACEMENT_3D ( 'NONE', #161, #213, #106 ) ;
#29 = DIRECTION ( 'NONE',  ( 0.0000000000000000000, 1.000000000000000000, 0.0000000000000000000 ) ) ;
#30 = VERTEX_POINT ( 'NONE', #42 ) ;
#31 = FACE_OUTER_BOUND ( 'NONE', #142, .T. ) ;
#32 = CIRCLE ( 'NONE', #23, 2.274999999999996358 ) ;
#33 = EDGE_CURVE ( 'NONE', #183, #19, #260, .T. ) ;
#34 = ORIENTED_EDGE ( 'NONE', *, *, #36, .F. ) ;
#35 = DIRECTION ( 'NONE',  ( -2.468850131082267316E-15, 0.7071067811865471286, -0.7071067811865479058 ) ) ;
#36 = EDGE_CURVE ( 'NONE', #19, #183, #65, .T. ) ;
#37 = ORIENTED_EDGE ( 'NONE', *, *, #164, .F. ) ;
#38 = ORIENTED_EDGE ( 'NONE', *, *, #313, .F. ) ;
#39 = DIRECTION ( 'NONE',  ( 0.0000000000000000000, 1.000000000000000000, 0.0000000000000000000 ) ) ;
#40 = AXIS2_PLACEMENT_3D ( 'NONE', #169, #225, #253 ) ;
#41 = AXIS2_PLACEMENT_3D ( 'NONE', #264, #130, #194 ) ;
#42 = CARTESIAN_POINT ( 'NONE',  ( 5.051315174576609170E-15, 2.274999999999994138, 1.366957908287711021 ) ) ;
#43 = DIRECTION ( 'NONE',  ( 3.491481338843133355E-15, -1.224646799147353207E-16, 1.000000000000000000 ) ) ;
#44 = CARTESIAN_POINT ( 'NONE',  ( 2.007601769834801742E-13, -7.041719095097280485E-15, 57.50000000000000000 ) ) ;
#45 = DIRECTION ( 'NONE',  ( -3.491481338843133355E-15, 1.224646799147353207E-16, -1.000000000000000000 ) ) ;
#46 = CARTESIAN_POINT ( 'NONE',  ( 2.025059176529017346E-13, -7.102951435054648059E-15, 58.00000000000000000 ) ) ;
#47 = EDGE_CURVE ( 'NONE', #19, #234, #334, .T. ) ;
#48 = AXIS2_PLACEMENT_3D ( 'NONE', #46, #76, #333 ) ;
#49 = ORIENTED_EDGE ( 'NONE', *, *, #47, .T. ) ;
#50 = CC_DESIGN_APPROVAL ( #25, ( #51 ) ) ;
#51 = PRODUCT_DEFINITION ( 'UNKNOWN', '', #298, #265 ) ;
#52 = ORIENTED_EDGE ( 'NONE', *, *, #223, .T. ) ;
#53 = CONICAL_SURFACE ( 'NONE', #197, 2.274999999999994138, 1.029744258676649649 ) ;
#54 = CARTESIAN_POINT ( 'NONE',  ( 2.007601769834801742E-13, 2.274999999999994138, 57.50000000000000000 ) ) ;
#55 =( NAMED_UNIT ( * ) PLANE_ANGLE_UNIT ( ) SI_UNIT ( $, .RADIAN. ) );
#56 = CARTESIAN_POINT ( 'NONE',  ( 4.772708027770586551E-15, -1.674040626953706248E-16, 1.366957908287711021 ) ) ;
#57 = APPROVAL_ROLE ( '' ) ;
#58 = EDGE_LOOP ( 'NONE', ( #156, #26, #239, #326 ) ) ;
#59 = AXIS2_PLACEMENT_3D ( 'NONE', #286, #138, #287 ) ;
#60 = SHAPE_DEFINITION_REPRESENTATION ( #103, #305 ) ;
#61 = ORGANIZATION ( 'UNSPECIFIED', 'UNSPECIFIED', '' ) ;
#62 = APPROVAL_DATE_TIME ( #191, #25 ) ;
#63 = ORIENTED_EDGE ( 'NONE', *, *, #330, .T. ) ;
#64 = FACE_OUTER_BOUND ( 'NONE', #244, .T. ) ;
#65 = CIRCLE ( 'NONE', #107, 2.275000000000000799 ) ;
#66 = CIRCLE ( 'NONE', #59, 2.274999999999994138 ) ;
#67 = DIRECTION ( 'NONE',  ( -3.386250451669873787E-31, -1.000000000000000000, -9.531447670202260852E-17 ) ) ;
#68 = APPROVAL_DATE_TIME ( #93, #271 ) ;
#69 = APPROVAL_STATUS ( 'not_yet_approved' ) ;
#70 = FACE_OUTER_BOUND ( 'NONE', #323, .T. ) ;
#71 = DIRECTION ( 'NONE',  ( -3.491481338843133355E-15, 1.224646799147353207E-16, -1.000000000000000000 ) ) ;
#72 = EDGE_LOOP ( 'NONE', ( #218, #91 ) ) ;
#73 = CARTESIAN_POINT ( 'NONE',  ( 2.025059176529017346E-13, 1.331036807112388911E-32, 58.00000000000000000 ) ) ;
#74 = UNCERTAINTY_MEASURE_WITH_UNIT (LENGTH_MEASURE( 1.000000000000000082E-05 ), #311, 'distance_accuracy_value', 'NONE');
#75 = DIRECTION ( 'NONE',  ( 0.0000000000000000000, 1.000000000000000000, 0.0000000000000000000 ) ) ;
#76 = DIRECTION ( 'NONE',  ( -3.491481338843133355E-15, 1.224646799147353207E-16, -1.000000000000000000 ) ) ;
#77 = EDGE_LOOP ( 'NONE', ( #13, #255, #85 ) ) ;
#78 = FACE_OUTER_BOUND ( 'NONE', #72, .T. ) ;
#79 = CC_DESIGN_PERSON_AND_ORGANIZATION_ASSIGNMENT ( #335, #284, ( #298 ) ) ;
#80 =( GEOMETRIC_REPRESENTATION_CONTEXT ( 3 ) GLOBAL_UNCERTAINTY_ASSIGNED_CONTEXT ( ( #74 ) ) GLOBAL_UNIT_ASSIGNED_CONTEXT ( ( #311, #55, #158 ) ) REPRESENTATION_CONTEXT ( 'NONE', 'WORKASPACE' ) );
#81 = CARTESIAN_POINT ( 'NONE',  ( 9.727516539415558978E-31, 2.274999999999995026, 2.786071468060222254E-16 ) ) ;
#82 = APPROVAL_STATUS ( 'not_yet_approved' ) ;
#83 = PERSON_AND_ORGANIZATION_ROLE ( 'design_owner' ) ;
#84 = CARTESIAN_POINT ( 'NONE',  ( 1.320820276881342713E-13, -2.274999999999998579, 18.00000000000000000 ) ) ;
#85 = ORIENTED_EDGE ( 'NONE', *, *, #318, .T. ) ;
#86 = DIRECTION ( 'NONE',  ( 4.275831445896958607E-31, 1.000000000000000000, 1.224646799147353207E-16 ) ) ;
#87 = EDGE_LOOP ( 'NONE', ( #137, #337 ) ) ;
#88 = APPROVAL_PERSON_ORGANIZATION ( #300, #271, #57 ) ;
#89 = ORIENTED_EDGE ( 'NONE', *, *, #193, .T. ) ;
#90 = EDGE_CURVE ( 'NONE', #301, #129, #187, .T. ) ;
#91 = ORIENTED_EDGE ( 'NONE', *, *, #90, .F. ) ;
#92 = FACE_OUTER_BOUND ( 'NONE', #87, .T. ) ;
#93 = DATE_AND_TIME ( #118, #331 ) ;
#94 = CONICAL_SURFACE ( 'NONE', #325, 1.775000000000001243, 0.7853981633974476129 ) ;
#95 = PERSON_AND_ORGANIZATION ( #224, #61 ) ;
#96 = DATE_TIME_ROLE ( 'creation_date' ) ;
#97 = CYLINDRICAL_SURFACE ( 'NONE', #41, 2.274999999999998579 ) ;
#98 = VECTOR ( 'NONE', #35, 1000.000000000000000 ) ;
#99 = CIRCLE ( 'NONE', #303, 2.274999999999996358 ) ;
#100 = ORIENTED_EDGE ( 'NONE', *, *, #113, .F. ) ;
#101 = DIRECTION ( 'NONE',  ( -4.275831445896958607E-31, -1.000000000000000000, -1.224646799147353207E-16 ) ) ;
#102 = ADVANCED_FACE ( 'NONE', ( #198 ), #201, .T. ) ;
#103 = PRODUCT_DEFINITION_SHAPE ( 'NONE', 'NONE',  #51 ) ;
#104 = PERSON_AND_ORGANIZATION ( #224, #61 ) ;
#105 = DIRECTION ( 'NONE',  ( -3.491481338843133355E-15, 1.224646799147353207E-16, -1.000000000000000000 ) ) ;
#106 = DIRECTION ( 'NONE',  ( 0.0000000000000000000, 1.000000000000000000, 0.0000000000000000000 ) ) ;
#107 = AXIS2_PLACEMENT_3D ( 'NONE', #44, #220, #75 ) ;
#108 = CC_DESIGN_SECURITY_CLASSIFICATION ( #233, ( #298 ) ) ;
#109 = DIRECTION ( 'NONE',  ( -3.491481338843133355E-15, 1.224646799147353207E-16, -1.000000000000000000 ) ) ;
#110 = EDGE_CURVE ( 'NONE', #328, #30, #165, .T. ) ;
#111 = EDGE_CURVE ( 'NONE', #301, #19, #206, .T. ) ;
#112 = LOCAL_TIME ( 9, 22, 9.000000000000000000, #10 ) ;
#113 = EDGE_CURVE ( 'NONE', #129, #183, #122, .T. ) ;
#114 = ORIENTED_EDGE ( 'NONE', *, *, #313, .T. ) ;
#115 = PERSON_AND_ORGANIZATION_ROLE ( 'creator' ) ;
#116 = LINE ( 'NONE', #322, #275 ) ;
#117 = DIRECTION ( 'NONE',  ( 4.275831445896958607E-31, 1.000000000000000000, 1.224646799147353207E-16 ) ) ;
#118 = CALENDAR_DATE ( 2021, 3, 9 ) ;
#119 = AXIS2_PLACEMENT_3D ( 'NONE', #314, #140, #86 ) ;
#120 = ORIENTED_EDGE ( 'NONE', *, *, #160, .T. ) ;
#121 = APPROVAL_STATUS ( 'not_yet_approved' ) ;
#122 = LINE ( 'NONE', #192, #98 ) ;
#123 = ADVANCED_FACE ( 'NONE', ( #70 ), #170, .T. ) ;
#124 = DIRECTION ( 'NONE',  ( 0.0000000000000000000, 1.000000000000000000, 0.0000000000000000000 ) ) ;
#125 = CIRCLE ( 'NONE', #188, 2.274999999999996358 ) ;
#126 = ORIENTED_EDGE ( 'NONE', *, *, #21, .T. ) ;
#127 = CC_DESIGN_DATE_AND_TIME_ASSIGNMENT ( #324, #96, ( #51 ) ) ;
#128 = CARTESIAN_POINT ( 'NONE',  ( 1.320820276881341451E-13, -2.275000000000007905, 57.50000000000000000 ) ) ;
#129 = VERTEX_POINT ( 'NONE', #151 ) ;
#130 = DIRECTION ( 'NONE',  ( -3.491481338843133355E-15, 1.224646799147353207E-16, -1.000000000000000000 ) ) ;
#131 = VECTOR ( 'NONE', #105, 1000.000000000000000 ) ;
#132 = ORIENTED_EDGE ( 'NONE', *, *, #113, .T. ) ;
#133 = CARTESIAN_POINT ( 'NONE',  ( 0.0000000000000000000, 0.0000000000000000000, 0.0000000000000000000 ) ) ;
#134 = CARTESIAN_POINT ( 'NONE',  ( 6.284666409917640040E-14, 2.274999999999994138, 18.00000000000000000 ) ) ;
#135 = APPROVAL ( #69, 'UNSPECIFIED' ) ;
#136 = VECTOR ( 'NONE', #312, 1000.000000000000000 ) ;
#137 = ORIENTED_EDGE ( 'NONE', *, *, #243, .F. ) ;
#138 = DIRECTION ( 'NONE',  ( -3.491481338843133355E-15, 1.224646799147353207E-16, -1.000000000000000000 ) ) ;
#139 = DIRECTION ( 'NONE',  ( 3.491481338843133355E-15, -1.224646799147353207E-16, 1.000000000000000000 ) ) ;
#140 = DIRECTION ( 'NONE',  ( -3.491481338843133355E-15, 1.224646799147353207E-16, -1.000000000000000000 ) ) ;
#141 = ADVANCED_FACE ( 'NONE', ( #64 ), #256, .F. ) ;
#142 = EDGE_LOOP ( 'NONE', ( #173, #235, #132, #34 ) ) ;
#143 = AXIS2_PLACEMENT_3D ( 'NONE', #279, #43, #67 ) ;
#144 = CARTESIAN_POINT ( 'NONE',  ( 6.284666409917640040E-14, -2.204364238465235428E-15, 18.00000000000000000 ) ) ;
#145 = ORIENTED_EDGE ( 'NONE', *, *, #47, .F. ) ;
#146 = CARTESIAN_POINT ( 'NONE',  ( 6.284666409917640040E-14, 2.274999999999994138, 18.00000000000000000 ) ) ;
#147 = PRODUCT_RELATED_PRODUCT_CATEGORY ( 'detail', '', ( #263 ) ) ;
#148 = DIRECTION ( 'NONE',  ( -2.382254525458718258E-15, -0.7071067811865469066, -0.7071067811865482389 ) ) ;
#149 = AXIS2_PLACEMENT_3D ( 'NONE', #73, #45, #258 ) ;
#150 = SECURITY_CLASSIFICATION_LEVEL ( 'unclassified' ) ;
#151 = CARTESIAN_POINT ( 'NONE',  ( 2.025059176529017346E-13, 1.774999999999994138, 58.00000000000000000 ) ) ;
#152 = COORDINATED_UNIVERSAL_TIME_OFFSET ( 1, 0, .AHEAD. ) ;
#153 = ORIENTED_EDGE ( 'NONE', *, *, #33, .F. ) ;
#154 = FACE_OUTER_BOUND ( 'NONE', #321, .T. ) ;
#155 = CC_DESIGN_APPROVAL ( #135, ( #298 ) ) ;
#156 = ORIENTED_EDGE ( 'NONE', *, *, #243, .T. ) ;
#157 = LOCAL_TIME ( 9, 22, 9.000000000000000000, #291 ) ;
#158 =( NAMED_UNIT ( * ) SI_UNIT ( $, .STERADIAN. ) SOLID_ANGLE_UNIT ( ) );
#159 = DIRECTION ( 'NONE',  ( 3.386250451669873787E-31, 1.000000000000000000, 9.531447670202260852E-17 ) ) ;
#160 = EDGE_CURVE ( 'NONE', #234, #245, #32, .T. ) ;
#161 = CARTESIAN_POINT ( 'NONE',  ( 2.025059176529017346E-13, -7.102951435054648059E-15, 58.00000000000000000 ) ) ;
#162 = CARTESIAN_POINT ( 'NONE',  ( 6.284666409917640040E-14, -2.204364238465235428E-15, 18.00000000000000000 ) ) ;
#163 = CARTESIAN_POINT ( 'NONE',  ( 9.727516539415574743E-31, 2.274999999999998579, 2.786071468060226691E-16 ) ) ;
#164 = EDGE_CURVE ( 'NONE', #177, #30, #116, .T. ) ;
#165 = LINE ( 'NONE', #81, #131 ) ;
#166 = PERSON_AND_ORGANIZATION ( #224, #61 ) ;
#167 = DIRECTION ( 'NONE',  ( 1.903218546456022717E-15, 0.8571673007021097801, 0.5150380749100585964 ) ) ;
#168 = MANIFOLD_SOLID_BREP ( 'Corps-Déplacer/Copier1[1]', #195 ) ;
#169 = CARTESIAN_POINT ( 'NONE',  ( 6.284666409917640040E-14, -2.204364238465235428E-15, 18.00000000000000000 ) ) ;
#170 = CONICAL_SURFACE ( 'NONE', #143, 2.274999999999994138, 1.029744258676649649 ) ;
#171 = VECTOR ( 'NONE', #211, 1000.000000000000000 ) ;
#172 = CARTESIAN_POINT ( 'NONE',  ( 2.007601769834801742E-13, -7.041719095097280485E-15, 57.50000000000000000 ) ) ;
#173 = ORIENTED_EDGE ( 'NONE', *, *, #111, .F. ) ;
#174 = ADVANCED_FACE ( 'NONE', ( #306 ), #53, .T. ) ;
#175 = CARTESIAN_POINT ( 'NONE',  ( 2.786071468060216831E-16, -2.274999999999998579, -2.786071468060236059E-16 ) ) ;
#176 = DATE_AND_TIME ( #226, #270 ) ;
#177 = VERTEX_POINT ( 'NONE', #237 ) ;
#178 = CIRCLE ( 'NONE', #28, 1.775000000000001243 ) ;
#179 = DIRECTION ( 'NONE',  ( 3.491481338843133355E-15, -1.224646799147353207E-16, 1.000000000000000000 ) ) ;
#180 = CC_DESIGN_PERSON_AND_ORGANIZATION_ASSIGNMENT ( #8, #115, ( #51 ) ) ;
#181 = CARTESIAN_POINT ( 'NONE',  ( 0.0000000000000000000, 0.0000000000000000000, 0.0000000000000000000 ) ) ;
#182 = LINE ( 'NONE', #163, #295 ) ;
#183 = VERTEX_POINT ( 'NONE', #54 ) ;
#184 = APPROVAL_ROLE ( '' ) ;
#185 = DIRECTION ( 'NONE',  ( 0.0000000000000000000, 1.000000000000000000, 0.0000000000000000000 ) ) ;
#186 = FACE_OUTER_BOUND ( 'NONE', #259, .T. ) ;
#187 = CIRCLE ( 'NONE', #48, 1.775000000000001243 ) ;
#188 = AXIS2_PLACEMENT_3D ( 'NONE', #332, #290, #29 ) ;
#189 = EDGE_CURVE ( 'NONE', #3, #219, #267, .T. ) ;
#190 = EDGE_LOOP ( 'NONE', ( #248, #49, #38, #212 ) ) ;
#191 = DATE_AND_TIME ( #249, #157 ) ;
#192 = CARTESIAN_POINT ( 'NONE',  ( 2.025059176529017346E-13, 1.774999999999994138, 58.00000000000000000 ) ) ;
#193 = EDGE_CURVE ( 'NONE', #219, #30, #240, .T. ) ;
#194 = DIRECTION ( 'NONE',  ( 4.275831445896958607E-31, 1.000000000000000000, 1.224646799147353207E-16 ) ) ;
#195 = CLOSED_SHELL ( 'NONE', ( #102, #297, #141, #292, #252, #304 ) ) ;
#196 = DIRECTION ( 'NONE',  ( -4.275831445896958607E-31, -1.000000000000000000, -1.224646799147353207E-16 ) ) ;
#197 = AXIS2_PLACEMENT_3D ( 'NONE', #231, #139, #272 ) ;
#198 = FACE_OUTER_BOUND ( 'NONE', #266, .T. ) ;
#199 = FACE_OUTER_BOUND ( 'NONE', #190, .T. ) ;
#200 = APPLICATION_CONTEXT ( 'configuration controlled 3d designs of mechanical parts and assemblies' ) ;
#201 = CONICAL_SURFACE ( 'NONE', #228, 1.775000000000001243, 0.7853981633974476129 ) ;
#202 = EDGE_CURVE ( 'NONE', #183, #245, #182, .T. ) ;
#203 = AXIS2_PLACEMENT_3D ( 'NONE', #133, #230, #221 ) ;
#204 = ORIENTED_EDGE ( 'NONE', *, *, #202, .T. ) ;
#205 = CYLINDRICAL_SURFACE ( 'NONE', #203, 2.274999999999998579 ) ;
#206 = LINE ( 'NONE', #307, #278 ) ;
#207 = CC_DESIGN_PERSON_AND_ORGANIZATION_ASSIGNMENT ( #268, #83, ( #263 ) ) ;
#208 = CIRCLE ( 'NONE', #40, 2.274999999999996358 ) ;
#209 = AXIS2_PLACEMENT_3D ( 'NONE', #56, #319, #159 ) ;
#210 = COORDINATED_UNIVERSAL_TIME_OFFSET ( 1, 0, .AHEAD. ) ;
#211 = DIRECTION ( 'NONE',  ( -3.491481338843133355E-15, 1.224646799147353207E-16, -1.000000000000000000 ) ) ;
#212 = ORIENTED_EDGE ( 'NONE', *, *, #202, .F. ) ;
#213 = DIRECTION ( 'NONE',  ( -3.491481338843133355E-15, 1.224646799147353207E-16, -1.000000000000000000 ) ) ;
#214 = CLOSED_SHELL ( 'NONE', ( #238, #174, #123, #274, #288 ) ) ;
#215 = ORIENTED_EDGE ( 'NONE', *, *, #193, .F. ) ;
#216 = CALENDAR_DATE ( 2021, 3, 9 ) ;
#217 = CARTESIAN_POINT ( 'NONE',  ( 6.284666409917640040E-14, 1.705976752777856871E-32, 18.00000000000000000 ) ) ;
#218 = ORIENTED_EDGE ( 'NONE', *, *, #330, .F. ) ;
#219 = VERTEX_POINT ( 'NONE', #5 ) ;
#220 = DIRECTION ( 'NONE',  ( -3.491481338843133355E-15, 1.224646799147353207E-16, -1.000000000000000000 ) ) ;
#221 = DIRECTION ( 'NONE',  ( 4.275831445896958607E-31, 1.000000000000000000, 1.224646799147353207E-16 ) ) ;
#222 = CALENDAR_DATE ( 2021, 3, 9 ) ;
#223 = EDGE_CURVE ( 'NONE', #177, #219, #273, .T. ) ;
#224 = PERSON ( 'UNSPECIFIED', 'UNSPECIFIED', 'UNSPECIFIED', ('UNSPECIFIED'), ('UNSPECIFIED'), ('UNSPECIFIED') ) ;
#225 = DIRECTION ( 'NONE',  ( -3.491481338843133355E-15, 1.224646799147353207E-16, -1.000000000000000000 ) ) ;
#226 = CALENDAR_DATE ( 2021, 3, 9 ) ;
#227 = ORIENTED_EDGE ( 'NONE', *, *, #189, .F. ) ;
#228 = AXIS2_PLACEMENT_3D ( 'NONE', #22, #316, #185 ) ;
#229 = AXIS2_PLACEMENT_3D ( 'NONE', #181, #308, #232 ) ;
#230 = DIRECTION ( 'NONE',  ( -3.491481338843133355E-15, 1.224646799147353207E-16, -1.000000000000000000 ) ) ;
#231 = CARTESIAN_POINT ( 'NONE',  ( 4.772708027770586551E-15, -1.674040626953706248E-16, 1.366957908287711021 ) ) ;
#232 = DIRECTION ( 'NONE',  ( 1.000000000000000000, 0.0000000000000000000, 0.0000000000000000000 ) ) ;
#233 = SECURITY_CLASSIFICATION ( '', '', #150 ) ;
#234 = VERTEX_POINT ( 'NONE', #84 ) ;
#235 = ORIENTED_EDGE ( 'NONE', *, *, #90, .T. ) ;
#236 = APPLICATION_PROTOCOL_DEFINITION ( 'international standard', 'config_control_design', 1994, #320 ) ;
#237 = CARTESIAN_POINT ( 'NONE',  ( 0.0000000000000000000, 0.0000000000000000000, 0.0000000000000000000 ) ) ;
#238 = ADVANCED_FACE ( 'NONE', ( #269 ), #27, .T. ) ;
#239 = ORIENTED_EDGE ( 'NONE', *, *, #318, .F. ) ;
#240 = CIRCLE ( 'NONE', #209, 2.274999999999994138 ) ;
#241 = DIRECTION ( 'NONE',  ( -3.491481338843133355E-15, 1.224646799147353207E-16, -1.000000000000000000 ) ) ;
#242 = DIRECTION ( 'NONE',  ( 0.0000000000000000000, 1.000000000000000000, 0.0000000000000000000 ) ) ;
#243 = EDGE_CURVE ( 'NONE', #328, #3, #99, .T. ) ;
#244 = EDGE_LOOP ( 'NONE', ( #114, #120 ) ) ;
#245 = VERTEX_POINT ( 'NONE', #146 ) ;
#246 = CARTESIAN_POINT ( 'NONE',  ( 0.0000000000000000000, 0.0000000000000000000, 0.0000000000000000000 ) ) ;
#247 = DIRECTION ( 'NONE',  ( -3.491481338843133355E-15, 1.224646799147353207E-16, -1.000000000000000000 ) ) ;
#248 = ORIENTED_EDGE ( 'NONE', *, *, #33, .T. ) ;
#249 = CALENDAR_DATE ( 2021, 3, 9 ) ;
#250 = CARTESIAN_POINT ( 'NONE',  ( 6.284666409917640040E-14, 1.705976752777856871E-32, 18.00000000000000000 ) ) ;
#251 = CC_DESIGN_APPROVAL ( #271, ( #233 ) ) ;
#252 = ADVANCED_FACE ( 'NONE', ( #31 ), #94, .T. ) ;
#253 = DIRECTION ( 'NONE',  ( 0.0000000000000000000, 1.000000000000000000, 0.0000000000000000000 ) ) ;
#254 = PERSON_AND_ORGANIZATION_ROLE ( 'classification_officer' ) ;
#255 = ORIENTED_EDGE ( 'NONE', *, *, #164, .T. ) ;
#256 = PLANE ( 'NONE',  #317 ) ;
#257 = COORDINATED_UNIVERSAL_TIME_OFFSET ( 1, 0, .AHEAD. ) ;
#258 = DIRECTION ( 'NONE',  ( 4.275831445896958607E-31, 1.000000000000000000, 1.224646799147353207E-16 ) ) ;
#259 = EDGE_LOOP ( 'NONE', ( #227, #126, #315, #215 ) ) ;
#260 = CIRCLE ( 'NONE', #12, 2.275000000000000799 ) ;
#261 = APPROVAL_PERSON_ORGANIZATION ( #166, #25, #184 ) ;
#262 = CARTESIAN_POINT ( 'NONE',  ( 3.408829321027948335E-14, -2.274999999999998579, 18.00000000000000000 ) ) ;
#263 = PRODUCT ( '40790', '40790', '', ( #309 ) ) ;
#264 = CARTESIAN_POINT ( 'NONE',  ( 0.0000000000000000000, 0.0000000000000000000, 0.0000000000000000000 ) ) ;
#265 = DESIGN_CONTEXT ( 'detailed design', #200, 'design' ) ;
#266 = EDGE_LOOP ( 'NONE', ( #63, #283, #153, #100 ) ) ;
#267 = LINE ( 'NONE', #310, #171 ) ;
#268 = PERSON_AND_ORGANIZATION ( #224, #61 ) ;
#269 = FACE_OUTER_BOUND ( 'NONE', #58, .T. ) ;
#270 = LOCAL_TIME ( 9, 22, 9.000000000000000000, #152 ) ;
#271 = APPROVAL ( #82, 'UNSPECIFIED' ) ;
#272 = DIRECTION ( 'NONE',  ( -3.386250451669873787E-31, -1.000000000000000000, -9.531447670202260852E-17 ) ) ;
#273 = LINE ( 'NONE', #289, #136 ) ;
#274 = ADVANCED_FACE ( 'NONE', ( #186 ), #294, .T. ) ;
#275 = VECTOR ( 'NONE', #167, 999.9999999999998863 ) ;
#276 = ORIENTED_EDGE ( 'NONE', *, *, #160, .F. ) ;
#277 = APPROVAL_ROLE ( '' ) ;
#278 = VECTOR ( 'NONE', #148, 999.9999999999998863 ) ;
#279 = CARTESIAN_POINT ( 'NONE',  ( 4.772708027770586551E-15, -1.674040626953706248E-16, 1.366957908287711021 ) ) ;
#280 = MANIFOLD_SOLID_BREP ( 'Corps-Déplacer/Copier1[2]', #214 ) ;
#281 = DIRECTION ( 'NONE',  ( 3.491481338843133355E-15, -1.224646799147353207E-16, 1.000000000000000000 ) ) ;
#282 = DIRECTION ( 'NONE',  ( -3.491481338843133355E-15, 1.224646799147353207E-16, -1.000000000000000000 ) ) ;
#283 = ORIENTED_EDGE ( 'NONE', *, *, #111, .T. ) ;
#284 = PERSON_AND_ORGANIZATION_ROLE ( 'design_supplier' ) ;
#285 = AXIS2_PLACEMENT_3D ( 'NONE', #250, #179, #101 ) ;
#286 = CARTESIAN_POINT ( 'NONE',  ( 4.772708027770586551E-15, -1.674040626953706248E-16, 1.366957908287711021 ) ) ;
#287 = DIRECTION ( 'NONE',  ( 3.386250451669873787E-31, 1.000000000000000000, 9.531447670202260852E-17 ) ) ;
#288 = ADVANCED_FACE ( 'NONE', ( #92 ), #296, .T. ) ;
#289 = CARTESIAN_POINT ( 'NONE',  ( 4.772708027770585762E-15, -2.274999999999994138, 1.366957908287710799 ) ) ;
#290 = DIRECTION ( 'NONE',  ( -3.491481338843133355E-15, 1.224646799147353207E-16, -1.000000000000000000 ) ) ;
#291 = COORDINATED_UNIVERSAL_TIME_OFFSET ( 1, 0, .AHEAD. ) ;
#292 = ADVANCED_FACE ( 'NONE', ( #154 ), #205, .T. ) ;
#293 = ORIENTED_EDGE ( 'NONE', *, *, #36, .T. ) ;
#294 = CYLINDRICAL_SURFACE ( 'NONE', #24, 2.274999999999995026 ) ;
#295 = VECTOR ( 'NONE', #109, 1000.000000000000000 ) ;
#296 = PLANE ( 'NONE',  #285 ) ;
#297 = ADVANCED_FACE ( 'NONE', ( #199 ), #97, .T. ) ;
#298 = PRODUCT_DEFINITION_FORMATION_WITH_SPECIFIED_SOURCE ( 'ANY', '', #263, .NOT_KNOWN. ) ;
#299 = PLANE ( 'NONE',  #149 ) ;
#300 = PERSON_AND_ORGANIZATION ( #224, #61 ) ;
#301 = VERTEX_POINT ( 'NONE', #302 ) ;
#302 = CARTESIAN_POINT ( 'NONE',  ( 2.018810382950182735E-13, -1.775000000000008349, 58.00000000000000000 ) ) ;
#303 = AXIS2_PLACEMENT_3D ( 'NONE', #162, #16, #39 ) ;
#304 = ADVANCED_FACE ( 'NONE', ( #78 ), #299, .F. ) ;
#305 = ADVANCED_BREP_SHAPE_REPRESENTATION ( '40790', ( #168, #280, #229 ), #80 ) ;
#306 = FACE_OUTER_BOUND ( 'NONE', #77, .T. ) ;
#307 = CARTESIAN_POINT ( 'NONE',  ( 2.027232924597503889E-13, -1.775000000000008349, 58.00000000000000000 ) ) ;
#308 = DIRECTION ( 'NONE',  ( 0.0000000000000000000, 0.0000000000000000000, 1.000000000000000000 ) ) ;
#309 = MECHANICAL_CONTEXT ( 'NONE', #320, 'mechanical' ) ;
#310 = CARTESIAN_POINT ( 'NONE',  ( 2.786071468060212886E-16, -2.274999999999995026, -2.786071468060232115E-16 ) ) ;
#311 =( LENGTH_UNIT ( ) NAMED_UNIT ( * ) SI_UNIT ( .MILLI., .METRE. ) );
#312 = DIRECTION ( 'NONE',  ( 1.798245827342160317E-15, -0.8571673007021098911, 0.5150380749100582634 ) ) ;
#313 = EDGE_CURVE ( 'NONE', #245, #234, #125, .T. ) ;
#314 = CARTESIAN_POINT ( 'NONE',  ( 0.0000000000000000000, 0.0000000000000000000, 0.0000000000000000000 ) ) ;
#315 = ORIENTED_EDGE ( 'NONE', *, *, #110, .T. ) ;
#316 = DIRECTION ( 'NONE',  ( -3.491481338843133355E-15, 1.224646799147353207E-16, -1.000000000000000000 ) ) ;
#317 = AXIS2_PLACEMENT_3D ( 'NONE', #217, #281, #196 ) ;
#318 = EDGE_CURVE ( 'NONE', #30, #219, #66, .T. ) ;
#319 = DIRECTION ( 'NONE',  ( -3.491481338843133355E-15, 1.224646799147353207E-16, -1.000000000000000000 ) ) ;
#320 = APPLICATION_CONTEXT ( 'configuration controlled 3d designs of mechanical parts and assemblies' ) ;
#321 = EDGE_LOOP ( 'NONE', ( #145, #293, #204, #276 ) ) ;
#322 = CARTESIAN_POINT ( 'NONE',  ( 5.051315174576609170E-15, 2.274999999999994138, 1.366957908287711021 ) ) ;
#323 = EDGE_LOOP ( 'NONE', ( #37, #52, #89 ) ) ;
#324 = DATE_AND_TIME ( #216, #112 ) ;
#325 = AXIS2_PLACEMENT_3D ( 'NONE', #15, #241, #7 ) ;
#326 = ORIENTED_EDGE ( 'NONE', *, *, #110, .F. ) ;
#327 = CC_DESIGN_PERSON_AND_ORGANIZATION_ASSIGNMENT ( #104, #254, ( #233 ) ) ;
#328 = VERTEX_POINT ( 'NONE', #134 ) ;
#329 = DATE_AND_TIME ( #222, #14 ) ;
#330 = EDGE_CURVE ( 'NONE', #129, #301, #178, .T. ) ;
#331 = LOCAL_TIME ( 9, 22, 9.000000000000000000, #210 ) ;
#332 = CARTESIAN_POINT ( 'NONE',  ( 6.284666409917640040E-14, -2.204364238465235428E-15, 18.00000000000000000 ) ) ;
#333 = DIRECTION ( 'NONE',  ( 0.0000000000000000000, 1.000000000000000000, 0.0000000000000000000 ) ) ;
#334 = LINE ( 'NONE', #175, #2 ) ;
#335 = PERSON_AND_ORGANIZATION ( #224, #61 ) ;
#336 = PERSON_AND_ORGANIZATION ( #224, #61 ) ;
#337 = ORIENTED_EDGE ( 'NONE', *, *, #21, .F. ) ;
ENDSEC;
END-ISO-10303-21;
