ISO-10303-21;
HEADER;
FILE_DESCRIPTION (( 'STEP AP203' ),
    '1' );
FILE_NAME ('40713.step',
    '2021-12-06T12:59:41',
    ( '' ),
    ( '' ),
    'SwSTEP 2.0',
    'SolidWorks 2019',
    '' );
FILE_SCHEMA (( 'CONFIG_CONTROL_DESIGN' ));
ENDSEC;

DATA;
#1 = APPROVAL_STATUS ( 'not_yet_approved' ) ;
#2 = CC_DESIGN_DATE_AND_TIME_ASSIGNMENT ( #28, #93, ( #68 ) ) ;
#3 = ORIENTED_EDGE ( 'NONE', *, *, #34, .T. ) ;
#4 = ORIENTED_EDGE ( 'NONE', *, *, #90, .F. ) ;
#5 = CALENDAR_DATE ( 2021, 6, 12 ) ;
#6 = CARTESIAN_POINT ( 'NONE',  ( 6.284666409917636884E-15, -2.204364238465234097E-16, 1.799999999999999156 ) ) ;
#7 = CIRCLE ( 'NONE', #78, 2.500000000000000000 ) ;
#8 = CC_DESIGN_DATE_AND_TIME_ASSIGNMENT ( #46, #160, ( #60 ) ) ;
#9 = CARTESIAN_POINT ( 'NONE',  ( -1.068957861474239564E-30, 3.749399456654643472E-32, -3.061616997868383141E-16 ) ) ;
#10 = DIRECTION ( 'NONE',  ( -3.491481338843133355E-15, 1.224646799147352961E-16, -1.000000000000000000 ) ) ;
#11 = PERSON_AND_ORGANIZATION ( #95, #43 ) ;
#12 = COORDINATED_UNIVERSAL_TIME_OFFSET ( 1, 0, .AHEAD. ) ;
#13 = APPROVAL_PERSON_ORGANIZATION ( #81, #73, #129 ) ;
#14 = EDGE_CURVE ( 'NONE', #59, #59, #7, .T. ) ;
#15 = DATE_AND_TIME ( #132, #143 ) ;
#16 = CARTESIAN_POINT ( 'NONE',  ( -3.206873584422718342E-30, 1.124819836996392658E-31, -9.184850993605145972E-16 ) ) ;
#17 = PERSON_AND_ORGANIZATION_ROLE ( 'creator' ) ;
#18 = PLANE ( 'NONE',  #24 ) ;
#19 = ORIENTED_EDGE ( 'NONE', *, *, #34, .F. ) ;
#20 = APPLICATION_PROTOCOL_DEFINITION ( 'international standard', 'config_control_design', 1994, #71 ) ;
#21 = DIRECTION ( 'NONE',  ( 3.491481338843133355E-15, -1.224646799147352961E-16, 1.000000000000000000 ) ) ;
#22 = MANIFOLD_SOLID_BREP ( 'Corps-Déplacer/Copier1', #127 ) ;
#23 = CARTESIAN_POINT ( 'NONE',  ( 0.0000000000000000000, 0.0000000000000000000, 0.0000000000000000000 ) ) ;
#24 = AXIS2_PLACEMENT_3D ( 'NONE', #97, #21, #154 ) ;
#25 =( LENGTH_UNIT ( ) NAMED_UNIT ( * ) SI_UNIT ( .MILLI., .METRE. ) );
#26 = DIRECTION ( 'NONE',  ( -3.491481338843133355E-15, 1.224646799147352961E-16, -1.000000000000000000 ) ) ;
#27 = VERTEX_POINT ( 'NONE', #130 ) ;
#28 = DATE_AND_TIME ( #163, #115 ) ;
#29 = DIRECTION ( 'NONE',  ( 4.275831445896957731E-31, 1.000000000000000000, 1.224646799147352961E-16 ) ) ;
#30 = DATE_AND_TIME ( #66, #62 ) ;
#31 = FACE_BOUND ( 'NONE', #152, .T. ) ;
#32 = AXIS2_PLACEMENT_3D ( 'NONE', #16, #70, #98 ) ;
#33 = EDGE_LOOP ( 'NONE', ( #123 ) ) ;
#34 = EDGE_CURVE ( 'NONE', #38, #38, #149, .T. ) ;
#35 = DESIGN_CONTEXT ( 'detailed design', #79, 'design' ) ;
#36 = AXIS2_PLACEMENT_3D ( 'NONE', #6, #140, #56 ) ;
#37 = CC_DESIGN_PERSON_AND_ORGANIZATION_ASSIGNMENT ( #147, #165, ( #60 ) ) ;
#38 = VERTEX_POINT ( 'NONE', #80 ) ;
#39 =( NAMED_UNIT ( * ) SI_UNIT ( $, .STERADIAN. ) SOLID_ANGLE_UNIT ( ) );
#40 = MECHANICAL_CONTEXT ( 'NONE', #71, 'mechanical' ) ;
#41 = APPROVAL_ROLE ( '' ) ;
#42 = CYLINDRICAL_SURFACE ( 'NONE', #86, 2.500000000000000444 ) ;
#43 = ORGANIZATION ( 'UNSPECIFIED', 'UNSPECIFIED', '' ) ;
#44 = DIRECTION ( 'NONE',  ( 4.275831445896957731E-31, 1.000000000000000000, 1.224646799147352961E-16 ) ) ;
#45 = DIRECTION ( 'NONE',  ( 4.275831445896957731E-31, 1.000000000000000000, 1.224646799147352961E-16 ) ) ;
#46 = DATE_AND_TIME ( #5, #167 ) ;
#47 = CC_DESIGN_APPROVAL ( #114, ( #60 ) ) ;
#48 = CC_DESIGN_PERSON_AND_ORGANIZATION_ASSIGNMENT ( #72, #17, ( #117 ) ) ;
#49 = DIRECTION ( 'NONE',  ( 0.0000000000000000000, 0.0000000000000000000, 1.000000000000000000 ) ) ;
#50 = PRODUCT_DEFINITION_SHAPE ( 'NONE', 'NONE',  #60 ) ;
#51 = AXIS2_PLACEMENT_3D ( 'NONE', #9, #10, #29 ) ;
#52 = VERTEX_POINT ( 'NONE', #159 ) ;
#53 = CALENDAR_DATE ( 2021, 6, 12 ) ;
#54 = EDGE_LOOP ( 'NONE', ( #166 ) ) ;
#55 = PERSON_AND_ORGANIZATION ( #95, #43 ) ;
#56 = DIRECTION ( 'NONE',  ( 4.108650548026103445E-31, 1.000000000000000000, 1.156482317317871478E-16 ) ) ;
#57 = APPROVAL_DATE_TIME ( #15, #73 ) ;
#58 = CARTESIAN_POINT ( 'NONE',  ( 6.284666409917639251E-15, -2.204364238465235083E-16, 1.799999999999999822 ) ) ;
#59 = VERTEX_POINT ( 'NONE', #169 ) ;
#60 = PRODUCT_DEFINITION ( 'UNKNOWN', '', #117, #35 ) ;
#61 = UNCERTAINTY_MEASURE_WITH_UNIT (LENGTH_MEASURE( 1.000000000000000082E-05 ), #25, 'distance_accuracy_value', 'NONE');
#62 = LOCAL_TIME ( 13, 59, 41.00000000000000000, #124 ) ;
#63 = PRODUCT_RELATED_PRODUCT_CATEGORY ( 'detail', '', ( #82 ) ) ;
#64 = CC_DESIGN_APPROVAL ( #151, ( #68 ) ) ;
#65 = COORDINATED_UNIVERSAL_TIME_OFFSET ( 1, 0, .AHEAD. ) ;
#66 = CALENDAR_DATE ( 2021, 6, 12 ) ;
#67 = FACE_BOUND ( 'NONE', #126, .T. ) ;
#68 = SECURITY_CLASSIFICATION ( '', '', #69 ) ;
#69 = SECURITY_CLASSIFICATION_LEVEL ( 'unclassified' ) ;
#70 = DIRECTION ( 'NONE',  ( -3.491481338843133355E-15, 1.224646799147352961E-16, -1.000000000000000000 ) ) ;
#71 = APPLICATION_CONTEXT ( 'configuration controlled 3d designs of mechanical parts and assemblies' ) ;
#72 = PERSON_AND_ORGANIZATION ( #95, #43 ) ;
#73 = APPROVAL ( #131, 'UNSPECIFIED' ) ;
#74 = EDGE_LOOP ( 'NONE', ( #3 ) ) ;
#75 = APPROVAL_ROLE ( '' ) ;
#76 = EDGE_LOOP ( 'NONE', ( #112 ) ) ;
#77 = CARTESIAN_POINT ( 'NONE',  ( 0.0000000000000000000, 0.0000000000000000000, 0.0000000000000000000 ) ) ;
#78 = AXIS2_PLACEMENT_3D ( 'NONE', #58, #122, #137 ) ;
#79 = APPLICATION_CONTEXT ( 'configuration controlled 3d designs of mechanical parts and assemblies' ) ;
#80 = CARTESIAN_POINT ( 'NONE',  ( 6.284666409917640040E-15, 7.500000000000000000, 1.800000000000000044 ) ) ;
#81 = PERSON_AND_ORGANIZATION ( #95, #43 ) ;
#82 = PRODUCT ( '40713', '40713', '', ( #40 ) ) ;
#83 = APPROVAL_DATE_TIME ( #30, #114 ) ;
#84 = CC_DESIGN_APPROVAL ( #73, ( #117 ) ) ;
#85 = ADVANCED_FACE ( 'NONE', ( #96, #110 ), #42, .F. ) ;
#86 = AXIS2_PLACEMENT_3D ( 'NONE', #23, #164, #45 ) ;
#87 = PERSON_AND_ORGANIZATION_ROLE ( 'design_owner' ) ;
#88 = ORIENTED_EDGE ( 'NONE', *, *, #118, .F. ) ;
#89 = COORDINATED_UNIVERSAL_TIME_OFFSET ( 1, 0, .AHEAD. ) ;
#90 = EDGE_CURVE ( 'NONE', #27, #27, #103, .T. ) ;
#91 = DIRECTION ( 'NONE',  ( 4.275831445896957731E-31, 1.000000000000000000, 1.224646799147352714E-16 ) ) ;
#92 = DIRECTION ( 'NONE',  ( 1.000000000000000000, 0.0000000000000000000, 0.0000000000000000000 ) ) ;
#93 = DATE_TIME_ROLE ( 'classification_date' ) ;
#94 = ADVANCED_FACE ( 'NONE', ( #108, #100 ), #156, .T. ) ;
#95 = PERSON ( 'UNSPECIFIED', 'UNSPECIFIED', 'UNSPECIFIED', ('UNSPECIFIED'), ('UNSPECIFIED'), ('UNSPECIFIED') ) ;
#96 = FACE_OUTER_BOUND ( 'NONE', #54, .T. ) ;
#97 = CARTESIAN_POINT ( 'NONE',  ( 6.284666409917639251E-15, 2.499999999999999556, 1.799999999999999822 ) ) ;
#98 = DIRECTION ( 'NONE',  ( 4.275831445896957731E-31, 1.000000000000000000, 1.224646799147352714E-16 ) ) ;
#99 = PERSON_AND_ORGANIZATION_ROLE ( 'classification_officer' ) ;
#100 = FACE_OUTER_BOUND ( 'NONE', #134, .T. ) ;
#101 = LOCAL_TIME ( 13, 59, 41.00000000000000000, #89 ) ;
#102 =( NAMED_UNIT ( * ) PLANE_ANGLE_UNIT ( ) SI_UNIT ( $, .RADIAN. ) );
#103 = CIRCLE ( 'NONE', #32, 7.500000000000000000 ) ;
#104 = APPLICATION_PROTOCOL_DEFINITION ( 'international standard', 'config_control_design', 1994, #79 ) ;
#105 = APPROVAL_PERSON_ORGANIZATION ( #148, #151, #41 ) ;
#106 = APPROVAL_STATUS ( 'not_yet_approved' ) ;
#107 = APPROVAL_DATE_TIME ( #135, #151 ) ;
#108 = FACE_OUTER_BOUND ( 'NONE', #74, .T. ) ;
#109 = PERSON_AND_ORGANIZATION_ROLE ( 'design_supplier' ) ;
#110 = FACE_OUTER_BOUND ( 'NONE', #33, .T. ) ;
#111 = PERSON_AND_ORGANIZATION ( #95, #43 ) ;
#112 = ORIENTED_EDGE ( 'NONE', *, *, #90, .T. ) ;
#113 = AXIS2_PLACEMENT_3D ( 'NONE', #77, #26, #91 ) ;
#114 = APPROVAL ( #106, 'UNSPECIFIED' ) ;
#115 = LOCAL_TIME ( 13, 59, 41.00000000000000000, #65 ) ;
#116 = PLANE ( 'NONE',  #121 ) ;
#117 = PRODUCT_DEFINITION_FORMATION_WITH_SPECIFIED_SOURCE ( 'ANY', '', #82, .NOT_KNOWN. ) ;
#118 = EDGE_CURVE ( 'NONE', #52, #52, #133, .T. ) ;
#119 = SHAPE_DEFINITION_REPRESENTATION ( #50, #141 ) ;
#120 = ADVANCED_FACE ( 'NONE', ( #145, #67 ), #116, .T. ) ;
#121 = AXIS2_PLACEMENT_3D ( 'NONE', #128, #146, #44 ) ;
#122 = DIRECTION ( 'NONE',  ( -3.491481338843133355E-15, 1.224646799147352961E-16, -1.000000000000000000 ) ) ;
#123 = ORIENTED_EDGE ( 'NONE', *, *, #14, .F. ) ;
#124 = COORDINATED_UNIVERSAL_TIME_OFFSET ( 1, 0, .AHEAD. ) ;
#125 = AXIS2_PLACEMENT_3D ( 'NONE', #158, #49, #92 ) ;
#126 = EDGE_LOOP ( 'NONE', ( #88 ) ) ;
#127 = CLOSED_SHELL ( 'NONE', ( #120, #94, #139, #85 ) ) ;
#128 = CARTESIAN_POINT ( 'NONE',  ( -1.068957861474239389E-30, 2.500000000000000444, -3.061616997868382155E-16 ) ) ;
#129 = APPROVAL_ROLE ( '' ) ;
#130 = CARTESIAN_POINT ( 'NONE',  ( 0.0000000000000000000, 7.500000000000000000, 0.0000000000000000000 ) ) ;
#131 = APPROVAL_STATUS ( 'not_yet_approved' ) ;
#132 = CALENDAR_DATE ( 2021, 6, 12 ) ;
#133 = CIRCLE ( 'NONE', #51, 2.500000000000000444 ) ;
#134 = EDGE_LOOP ( 'NONE', ( #4 ) ) ;
#135 = DATE_AND_TIME ( #53, #101 ) ;
#136 = FACE_OUTER_BOUND ( 'NONE', #162, .T. ) ;
#137 = DIRECTION ( 'NONE',  ( 3.081487911019577365E-31, 1.000000000000000000, 8.673617379884035472E-17 ) ) ;
#138 = COORDINATED_UNIVERSAL_TIME_OFFSET ( 1, 0, .AHEAD. ) ;
#139 = ADVANCED_FACE ( 'NONE', ( #31, #136 ), #18, .T. ) ;
#140 = DIRECTION ( 'NONE',  ( -3.491481338843133355E-15, 1.224646799147352961E-16, -1.000000000000000000 ) ) ;
#141 = ADVANCED_BREP_SHAPE_REPRESENTATION ( '40713', ( #22, #125 ), #155 ) ;
#142 = CC_DESIGN_SECURITY_CLASSIFICATION ( #68, ( #117 ) ) ;
#143 = LOCAL_TIME ( 13, 59, 41.00000000000000000, #12 ) ;
#144 = CC_DESIGN_PERSON_AND_ORGANIZATION_ASSIGNMENT ( #55, #87, ( #82 ) ) ;
#145 = FACE_OUTER_BOUND ( 'NONE', #76, .T. ) ;
#146 = DIRECTION ( 'NONE',  ( -3.491481338843133355E-15, 1.224646799147352961E-16, -1.000000000000000000 ) ) ;
#147 = PERSON_AND_ORGANIZATION ( #95, #43 ) ;
#148 = PERSON_AND_ORGANIZATION ( #95, #43 ) ;
#149 = CIRCLE ( 'NONE', #36, 7.500000000000000000 ) ;
#150 = ORIENTED_EDGE ( 'NONE', *, *, #14, .T. ) ;
#151 = APPROVAL ( #1, 'UNSPECIFIED' ) ;
#152 = EDGE_LOOP ( 'NONE', ( #150 ) ) ;
#153 = CC_DESIGN_PERSON_AND_ORGANIZATION_ASSIGNMENT ( #111, #99, ( #68 ) ) ;
#154 = DIRECTION ( 'NONE',  ( -4.275831445896957731E-31, -1.000000000000000000, -1.224646799147352961E-16 ) ) ;
#155 =( GEOMETRIC_REPRESENTATION_CONTEXT ( 3 ) GLOBAL_UNCERTAINTY_ASSIGNED_CONTEXT ( ( #61 ) ) GLOBAL_UNIT_ASSIGNED_CONTEXT ( ( #25, #102, #39 ) ) REPRESENTATION_CONTEXT ( 'NONE', 'WORKASPACE' ) );
#156 = CYLINDRICAL_SURFACE ( 'NONE', #113, 7.500000000000000000 ) ;
#157 = APPROVAL_PERSON_ORGANIZATION ( #161, #114, #75 ) ;
#158 = CARTESIAN_POINT ( 'NONE',  ( 0.0000000000000000000, 0.0000000000000000000, 0.0000000000000000000 ) ) ;
#159 = CARTESIAN_POINT ( 'NONE',  ( 0.0000000000000000000, 2.500000000000000444, 0.0000000000000000000 ) ) ;
#160 = DATE_TIME_ROLE ( 'creation_date' ) ;
#161 = PERSON_AND_ORGANIZATION ( #95, #43 ) ;
#162 = EDGE_LOOP ( 'NONE', ( #19 ) ) ;
#163 = CALENDAR_DATE ( 2021, 6, 12 ) ;
#164 = DIRECTION ( 'NONE',  ( -3.491481338843133355E-15, 1.224646799147352961E-16, -1.000000000000000000 ) ) ;
#165 = PERSON_AND_ORGANIZATION_ROLE ( 'creator' ) ;
#166 = ORIENTED_EDGE ( 'NONE', *, *, #118, .T. ) ;
#167 = LOCAL_TIME ( 13, 59, 41.00000000000000000, #138 ) ;
#168 = CC_DESIGN_PERSON_AND_ORGANIZATION_ASSIGNMENT ( #11, #109, ( #117 ) ) ;
#169 = CARTESIAN_POINT ( 'NONE',  ( 6.284666409917640040E-15, 2.499999999999999556, 1.800000000000000044 ) ) ;
ENDSEC;
END-ISO-10303-21;
