ISO-10303-21;
HEADER;
FILE_DESCRIPTION (( 'STEP AP203' ),
    '1' );
FILE_NAME ('40711.step',
    '2021-12-06T12:59:40',
    ( '' ),
    ( '' ),
    'SwSTEP 2.0',
    'SolidWorks 2019',
    '' );
FILE_SCHEMA (( 'CONFIG_CONTROL_DESIGN' ));
ENDSEC;

DATA;
#1 = EDGE_CURVE ( 'NONE', #47, #47, #143, .T. ) ;
#2 = EDGE_LOOP ( 'NONE', ( #162 ) ) ;
#3 = DIRECTION ( 'NONE',  ( -3.491481338843133355E-15, 1.224646799147353207E-16, -1.000000000000000000 ) ) ;
#4 = APPLICATION_CONTEXT ( 'configuration controlled 3d designs of mechanical parts and assemblies' ) ;
#5 = AXIS2_PLACEMENT_3D ( 'NONE', #54, #3, #78 ) ;
#6 = DATE_TIME_ROLE ( 'creation_date' ) ;
#7 = PERSON_AND_ORGANIZATION ( #130, #134 ) ;
#8 = APPROVAL_STATUS ( 'not_yet_approved' ) ;
#9 = AXIS2_PLACEMENT_3D ( 'NONE', #74, #165, #157 ) ;
#10 = AXIS2_PLACEMENT_3D ( 'NONE', #148, #48, #68 ) ;
#11 = PERSON_AND_ORGANIZATION_ROLE ( 'creator' ) ;
#12 = PERSON_AND_ORGANIZATION_ROLE ( 'classification_officer' ) ;
#13 = ADVANCED_BREP_SHAPE_REPRESENTATION ( '40711', ( #111, #102 ), #42 ) ;
#14 = PRODUCT_DEFINITION ( 'UNKNOWN', '', #79, #44 ) ;
#15 = DATE_AND_TIME ( #128, #50 ) ;
#16 = AXIS2_PLACEMENT_3D ( 'NONE', #57, #77, #151 ) ;
#17 = CARTESIAN_POINT ( 'NONE',  ( -1.068957861474239739E-30, 3.749399456654644567E-32, -3.061616997868383634E-16 ) ) ;
#18 = EDGE_CURVE ( 'NONE', #156, #156, #83, .T. ) ;
#19 = FACE_OUTER_BOUND ( 'NONE', #55, .T. ) ;
#20 = CIRCLE ( 'NONE', #167, 2.500000000000000000 ) ;
#21 = DIRECTION ( 'NONE',  ( -3.491481338843133355E-15, 1.224646799147353207E-16, -1.000000000000000000 ) ) ;
#22 = DIRECTION ( 'NONE',  ( 1.000000000000000000, 0.0000000000000000000, 0.0000000000000000000 ) ) ;
#23 = CLOSED_SHELL ( 'NONE', ( #122, #24, #142, #117 ) ) ;
#24 = ADVANCED_FACE ( 'NONE', ( #19, #93 ), #114, .T. ) ;
#25 = PERSON_AND_ORGANIZATION ( #130, #134 ) ;
#26 = DATE_AND_TIME ( #159, #121 ) ;
#27 = COORDINATED_UNIVERSAL_TIME_OFFSET ( 1, 0, .AHEAD. ) ;
#28 = ORIENTED_EDGE ( 'NONE', *, *, #1, .T. ) ;
#29 = CC_DESIGN_APPROVAL ( #129, ( #14 ) ) ;
#30 = EDGE_LOOP ( 'NONE', ( #43 ) ) ;
#31 = EDGE_LOOP ( 'NONE', ( #80 ) ) ;
#32 = APPROVAL_PERSON_ORGANIZATION ( #25, #106, #62 ) ;
#33 = CARTESIAN_POINT ( 'NONE',  ( -1.068957861474239389E-30, 2.500000000000000444, -3.061616997868382648E-16 ) ) ;
#34 = PRODUCT_RELATED_PRODUCT_CATEGORY ( 'detail', '', ( #140 ) ) ;
#35 = DIRECTION ( 'NONE',  ( 4.275831445896958607E-31, 1.000000000000000000, 1.224646799147353207E-16 ) ) ;
#36 =( LENGTH_UNIT ( ) NAMED_UNIT ( * ) SI_UNIT ( .MILLI., .METRE. ) );
#37 = CALENDAR_DATE ( 2021, 6, 12 ) ;
#38 = APPROVAL_STATUS ( 'not_yet_approved' ) ;
#39 = SECURITY_CLASSIFICATION_LEVEL ( 'unclassified' ) ;
#40 = DATE_AND_TIME ( #110, #116 ) ;
#41 = PERSON_AND_ORGANIZATION ( #130, #134 ) ;
#42 =( GEOMETRIC_REPRESENTATION_CONTEXT ( 3 ) GLOBAL_UNCERTAINTY_ASSIGNED_CONTEXT ( ( #63 ) ) GLOBAL_UNIT_ASSIGNED_CONTEXT ( ( #36, #85, #141 ) ) REPRESENTATION_CONTEXT ( 'NONE', 'WORKASPACE' ) );
#43 = ORIENTED_EDGE ( 'NONE', *, *, #95, .F. ) ;
#44 = DESIGN_CONTEXT ( 'detailed design', #4, 'design' ) ;
#45 = CC_DESIGN_DATE_AND_TIME_ASSIGNMENT ( #40, #88, ( #73 ) ) ;
#46 = APPROVAL_STATUS ( 'not_yet_approved' ) ;
#47 = VERTEX_POINT ( 'NONE', #123 ) ;
#48 = DIRECTION ( 'NONE',  ( -3.491481338843133355E-15, 1.224646799147353207E-16, -1.000000000000000000 ) ) ;
#49 = FACE_BOUND ( 'NONE', #90, .T. ) ;
#50 = LOCAL_TIME ( 13, 59, 40.00000000000000000, #52 ) ;
#51 = PERSON_AND_ORGANIZATION ( #130, #134 ) ;
#52 = COORDINATED_UNIVERSAL_TIME_OFFSET ( 1, 0, .AHEAD. ) ;
#53 = CC_DESIGN_APPROVAL ( #106, ( #79 ) ) ;
#54 = CARTESIAN_POINT ( 'NONE',  ( 0.0000000000000000000, 0.0000000000000000000, 0.0000000000000000000 ) ) ;
#55 = EDGE_LOOP ( 'NONE', ( #64 ) ) ;
#56 = DIRECTION ( 'NONE',  ( 4.275831445896958607E-31, 1.000000000000000000, 1.224646799147353207E-16 ) ) ;
#57 = CARTESIAN_POINT ( 'NONE',  ( -3.206873584422719042E-30, 1.124819836996393096E-31, -9.184850993605147944E-16 ) ) ;
#58 = PERSON_AND_ORGANIZATION_ROLE ( 'design_owner' ) ;
#59 = DATE_AND_TIME ( #118, #139 ) ;
#60 = APPLICATION_CONTEXT ( 'configuration controlled 3d designs of mechanical parts and assemblies' ) ;
#61 = APPROVAL_PERSON_ORGANIZATION ( #96, #129, #107 ) ;
#62 = APPROVAL_ROLE ( '' ) ;
#63 = UNCERTAINTY_MEASURE_WITH_UNIT (LENGTH_MEASURE( 1.000000000000000082E-05 ), #36, 'distance_accuracy_value', 'NONE');
#64 = ORIENTED_EDGE ( 'NONE', *, *, #18, .T. ) ;
#65 = CC_DESIGN_PERSON_AND_ORGANIZATION_ASSIGNMENT ( #168, #11, ( #14 ) ) ;
#66 = AXIS2_PLACEMENT_3D ( 'NONE', #105, #21, #132 ) ;
#67 = CYLINDRICAL_SURFACE ( 'NONE', #10, 2.500000000000000444 ) ;
#68 = DIRECTION ( 'NONE',  ( 4.275831445896958607E-31, 1.000000000000000000, 1.224646799147353207E-16 ) ) ;
#69 = CC_DESIGN_APPROVAL ( #76, ( #73 ) ) ;
#70 = APPLICATION_PROTOCOL_DEFINITION ( 'international standard', 'config_control_design', 1994, #4 ) ;
#71 = CARTESIAN_POINT ( 'NONE',  ( 0.0000000000000000000, 0.0000000000000000000, 0.0000000000000000000 ) ) ;
#72 = FACE_OUTER_BOUND ( 'NONE', #31, .T. ) ;
#73 = SECURITY_CLASSIFICATION ( '', '', #39 ) ;
#74 = CARTESIAN_POINT ( 'NONE',  ( 5.586370142149013368E-15, 2.500000000000000000, 1.599999999999999867 ) ) ;
#75 = CC_DESIGN_DATE_AND_TIME_ASSIGNMENT ( #86, #6, ( #14 ) ) ;
#76 = APPROVAL ( #38, 'UNSPECIFIED' ) ;
#77 = DIRECTION ( 'NONE',  ( -3.491481338843133355E-15, 1.224646799147353207E-16, -1.000000000000000000 ) ) ;
#78 = DIRECTION ( 'NONE',  ( 4.275831445896958607E-31, 1.000000000000000000, 1.224646799147352961E-16 ) ) ;
#79 = PRODUCT_DEFINITION_FORMATION_WITH_SPECIFIED_SOURCE ( 'ANY', '', #140, .NOT_KNOWN. ) ;
#80 = ORIENTED_EDGE ( 'NONE', *, *, #18, .F. ) ;
#81 = FACE_OUTER_BOUND ( 'NONE', #149, .T. ) ;
#82 = DIRECTION ( 'NONE',  ( -3.491481338843133355E-15, 1.224646799147353207E-16, -1.000000000000000000 ) ) ;
#83 = CIRCLE ( 'NONE', #66, 7.500000000000000000 ) ;
#84 = CC_DESIGN_PERSON_AND_ORGANIZATION_ASSIGNMENT ( #158, #125, ( #79 ) ) ;
#85 =( NAMED_UNIT ( * ) PLANE_ANGLE_UNIT ( ) SI_UNIT ( $, .RADIAN. ) );
#86 = DATE_AND_TIME ( #37, #99 ) ;
#87 = COORDINATED_UNIVERSAL_TIME_OFFSET ( 1, 0, .AHEAD. ) ;
#88 = DATE_TIME_ROLE ( 'classification_date' ) ;
#89 = AXIS2_PLACEMENT_3D ( 'NONE', #17, #163, #56 ) ;
#90 = EDGE_LOOP ( 'NONE', ( #150 ) ) ;
#91 = ORIENTED_EDGE ( 'NONE', *, *, #97, .F. ) ;
#92 = EDGE_LOOP ( 'NONE', ( #91 ) ) ;
#93 = FACE_OUTER_BOUND ( 'NONE', #2, .T. ) ;
#94 = APPROVAL_PERSON_ORGANIZATION ( #145, #76, #103 ) ;
#95 = EDGE_CURVE ( 'NONE', #164, #164, #104, .T. ) ;
#96 = PERSON_AND_ORGANIZATION ( #130, #134 ) ;
#97 = EDGE_CURVE ( 'NONE', #155, #155, #20, .T. ) ;
#98 = MECHANICAL_CONTEXT ( 'NONE', #60, 'mechanical' ) ;
#99 = LOCAL_TIME ( 13, 59, 40.00000000000000000, #101 ) ;
#100 = PLANE ( 'NONE',  #9 ) ;
#101 = COORDINATED_UNIVERSAL_TIME_OFFSET ( 1, 0, .AHEAD. ) ;
#102 = AXIS2_PLACEMENT_3D ( 'NONE', #71, #119, #22 ) ;
#103 = APPROVAL_ROLE ( '' ) ;
#104 = CIRCLE ( 'NONE', #89, 2.500000000000000444 ) ;
#105 = CARTESIAN_POINT ( 'NONE',  ( 5.586370142149011002E-15, -1.959434878635764244E-16, 1.599999999999999201 ) ) ;
#106 = APPROVAL ( #46, 'UNSPECIFIED' ) ;
#107 = APPROVAL_ROLE ( '' ) ;
#108 = APPLICATION_PROTOCOL_DEFINITION ( 'international standard', 'config_control_design', 1994, #60 ) ;
#109 = COORDINATED_UNIVERSAL_TIME_OFFSET ( 1, 0, .AHEAD. ) ;
#110 = CALENDAR_DATE ( 2021, 6, 12 ) ;
#111 = MANIFOLD_SOLID_BREP ( 'Corps-Déplacer/Copier1', #23 ) ;
#112 = CC_DESIGN_SECURITY_CLASSIFICATION ( #73, ( #79 ) ) ;
#113 = DIRECTION ( 'NONE',  ( -3.491481338843133355E-15, 1.224646799147353207E-16, -1.000000000000000000 ) ) ;
#114 = CYLINDRICAL_SURFACE ( 'NONE', #5, 7.500000000000000000 ) ;
#115 = APPROVAL_DATE_TIME ( #59, #129 ) ;
#116 = LOCAL_TIME ( 13, 59, 40.00000000000000000, #27 ) ;
#117 = ADVANCED_FACE ( 'NONE', ( #133, #136 ), #67, .F. ) ;
#118 = CALENDAR_DATE ( 2021, 6, 12 ) ;
#119 = DIRECTION ( 'NONE',  ( 0.0000000000000000000, 0.0000000000000000000, 1.000000000000000000 ) ) ;
#120 = CARTESIAN_POINT ( 'NONE',  ( 5.586370142149014157E-15, 2.500000000000000000, 1.600000000000000089 ) ) ;
#121 = LOCAL_TIME ( 13, 59, 40.00000000000000000, #87 ) ;
#122 = ADVANCED_FACE ( 'NONE', ( #81, #153 ), #154, .T. ) ;
#123 = CARTESIAN_POINT ( 'NONE',  ( 0.0000000000000000000, 7.500000000000000000, 0.0000000000000000000 ) ) ;
#124 = SHAPE_DEFINITION_REPRESENTATION ( #146, #13 ) ;
#125 = PERSON_AND_ORGANIZATION_ROLE ( 'creator' ) ;
#126 = CC_DESIGN_PERSON_AND_ORGANIZATION_ASSIGNMENT ( #51, #12, ( #73 ) ) ;
#127 = AXIS2_PLACEMENT_3D ( 'NONE', #33, #82, #35 ) ;
#128 = CALENDAR_DATE ( 2021, 6, 12 ) ;
#129 = APPROVAL ( #8, 'UNSPECIFIED' ) ;
#130 = PERSON ( 'UNSPECIFIED', 'UNSPECIFIED', 'UNSPECIFIED', ('UNSPECIFIED'), ('UNSPECIFIED'), ('UNSPECIFIED') ) ;
#131 = DIRECTION ( 'NONE',  ( 3.081487911019577365E-31, 1.000000000000000000, 8.673617379884035472E-17 ) ) ;
#132 = DIRECTION ( 'NONE',  ( 4.108650548026103445E-31, 1.000000000000000000, 1.156482317317871478E-16 ) ) ;
#133 = FACE_OUTER_BOUND ( 'NONE', #135, .T. ) ;
#134 = ORGANIZATION ( 'UNSPECIFIED', 'UNSPECIFIED', '' ) ;
#135 = EDGE_LOOP ( 'NONE', ( #160 ) ) ;
#136 = FACE_OUTER_BOUND ( 'NONE', #92, .T. ) ;
#137 = CC_DESIGN_PERSON_AND_ORGANIZATION_ASSIGNMENT ( #7, #58, ( #140 ) ) ;
#138 = CARTESIAN_POINT ( 'NONE',  ( 5.586370142149014157E-15, 7.500000000000000000, 1.600000000000000089 ) ) ;
#139 = LOCAL_TIME ( 13, 59, 40.00000000000000000, #109 ) ;
#140 = PRODUCT ( '40711', '40711', '', ( #98 ) ) ;
#141 =( NAMED_UNIT ( * ) SI_UNIT ( $, .STERADIAN. ) SOLID_ANGLE_UNIT ( ) );
#142 = ADVANCED_FACE ( 'NONE', ( #49, #72 ), #100, .T. ) ;
#143 = CIRCLE ( 'NONE', #16, 7.500000000000000000 ) ;
#144 = APPROVAL_DATE_TIME ( #15, #76 ) ;
#145 = PERSON_AND_ORGANIZATION ( #130, #134 ) ;
#146 = PRODUCT_DEFINITION_SHAPE ( 'NONE', 'NONE',  #14 ) ;
#147 = APPROVAL_DATE_TIME ( #26, #106 ) ;
#148 = CARTESIAN_POINT ( 'NONE',  ( 0.0000000000000000000, 0.0000000000000000000, 0.0000000000000000000 ) ) ;
#149 = EDGE_LOOP ( 'NONE', ( #28 ) ) ;
#150 = ORIENTED_EDGE ( 'NONE', *, *, #97, .T. ) ;
#151 = DIRECTION ( 'NONE',  ( 4.275831445896958607E-31, 1.000000000000000000, 1.224646799147352961E-16 ) ) ;
#152 = CARTESIAN_POINT ( 'NONE',  ( 5.586370142149013368E-15, -1.959434878635764984E-16, 1.599999999999999867 ) ) ;
#153 = FACE_BOUND ( 'NONE', #30, .T. ) ;
#154 = PLANE ( 'NONE',  #127 ) ;
#155 = VERTEX_POINT ( 'NONE', #120 ) ;
#156 = VERTEX_POINT ( 'NONE', #138 ) ;
#157 = DIRECTION ( 'NONE',  ( -4.275831445896958607E-31, -1.000000000000000000, -1.224646799147353207E-16 ) ) ;
#158 = PERSON_AND_ORGANIZATION ( #130, #134 ) ;
#159 = CALENDAR_DATE ( 2021, 6, 12 ) ;
#160 = ORIENTED_EDGE ( 'NONE', *, *, #95, .T. ) ;
#161 = CC_DESIGN_PERSON_AND_ORGANIZATION_ASSIGNMENT ( #41, #169, ( #79 ) ) ;
#162 = ORIENTED_EDGE ( 'NONE', *, *, #1, .F. ) ;
#163 = DIRECTION ( 'NONE',  ( -3.491481338843133355E-15, 1.224646799147353207E-16, -1.000000000000000000 ) ) ;
#164 = VERTEX_POINT ( 'NONE', #166 ) ;
#165 = DIRECTION ( 'NONE',  ( 3.491481338843133355E-15, -1.224646799147353207E-16, 1.000000000000000000 ) ) ;
#166 = CARTESIAN_POINT ( 'NONE',  ( 0.0000000000000000000, 2.500000000000000444, 0.0000000000000000000 ) ) ;
#167 = AXIS2_PLACEMENT_3D ( 'NONE', #152, #113, #131 ) ;
#168 = PERSON_AND_ORGANIZATION ( #130, #134 ) ;
#169 = PERSON_AND_ORGANIZATION_ROLE ( 'design_supplier' ) ;
ENDSEC;
END-ISO-10303-21;
