ISO-10303-21;
HEADER;
FILE_DESCRIPTION (( 'STEP AP203' ),
    '1' );
FILE_NAME ('40710.step',
    '2021-12-06T12:59:39',
    ( '' ),
    ( '' ),
    'SwSTEP 2.0',
    'SolidWorks 2019',
    '' );
FILE_SCHEMA (( 'CONFIG_CONTROL_DESIGN' ));
ENDSEC;

DATA;
#1 = CC_DESIGN_PERSON_AND_ORGANIZATION_ASSIGNMENT ( #103, #126, ( #56 ) ) ;
#2 = COORDINATED_UNIVERSAL_TIME_OFFSET ( 1, 0, .AHEAD. ) ;
#3 = PERSON_AND_ORGANIZATION_ROLE ( 'design_supplier' ) ;
#4 = ORIENTED_EDGE ( 'NONE', *, *, #166, .T. ) ;
#5 = CIRCLE ( 'NONE', #47, 2.500000000000000444 ) ;
#6 = APPROVAL_ROLE ( '' ) ;
#7 = ADVANCED_FACE ( 'NONE', ( #89, #18 ), #141, .T. ) ;
#8 = CALENDAR_DATE ( 2021, 6, 12 ) ;
#9 =( NAMED_UNIT ( * ) SI_UNIT ( $, .STERADIAN. ) SOLID_ANGLE_UNIT ( ) );
#10 = DIRECTION ( 'NONE',  ( -3.491481338843133355E-15, -1.258343394431541045E-16, -1.000000000000000000 ) ) ;
#11 = PRODUCT_RELATED_PRODUCT_CATEGORY ( 'detail', '', ( #56 ) ) ;
#12 = ORIENTED_EDGE ( 'NONE', *, *, #17, .T. ) ;
#13 = CARTESIAN_POINT ( 'NONE',  ( 0.0000000000000000000, 7.500000000000000000, 0.0000000000000000000 ) ) ;
#14 = APPLICATION_PROTOCOL_DEFINITION ( 'international standard', 'config_control_design', 1994, #107 ) ;
#15 = APPROVAL_PERSON_ORGANIZATION ( #143, #35, #37 ) ;
#16 = CYLINDRICAL_SURFACE ( 'NONE', #147, 7.500000000000000000 ) ;
#17 = EDGE_CURVE ( 'NONE', #156, #156, #5, .T. ) ;
#18 = FACE_BOUND ( 'NONE', #38, .T. ) ;
#19 = EDGE_LOOP ( 'NONE', ( #4 ) ) ;
#20 = AXIS2_PLACEMENT_3D ( 'NONE', #70, #43, #94 ) ;
#21 = PERSON_AND_ORGANIZATION_ROLE ( 'creator' ) ;
#22 = APPROVAL_DATE_TIME ( #32, #35 ) ;
#23 = EDGE_LOOP ( 'NONE', ( #12 ) ) ;
#24 = PRODUCT_DEFINITION_FORMATION_WITH_SPECIFIED_SOURCE ( 'ANY', '', #56, .NOT_KNOWN. ) ;
#25 = CARTESIAN_POINT ( 'NONE',  ( 1.098370619878562507E-30, 3.958570245773733029E-32, 3.145858486078852860E-16 ) ) ;
#26 = DATE_AND_TIME ( #97, #144 ) ;
#27 = SECURITY_CLASSIFICATION_LEVEL ( 'unclassified' ) ;
#28 = PERSON_AND_ORGANIZATION_ROLE ( 'creator' ) ;
#29 = AXIS2_PLACEMENT_3D ( 'NONE', #46, #165, #50 ) ;
#30 = LOCAL_TIME ( 13, 59, 39.00000000000000000, #108 ) ;
#31 = PERSON_AND_ORGANIZATION ( #88, #148 ) ;
#32 = DATE_AND_TIME ( #8, #84 ) ;
#33 = COORDINATED_UNIVERSAL_TIME_OFFSET ( 1, 0, .AHEAD. ) ;
#34 = CARTESIAN_POINT ( 'NONE',  ( 5.237222008264700033E-15, 1.887515091647311568E-16, 1.500000000000000000 ) ) ;
#35 = APPROVAL ( #101, 'UNSPECIFIED' ) ;
#36 = CARTESIAN_POINT ( 'NONE',  ( 3.295111859635686994E-30, 1.187571073732119690E-31, 9.437575458236556115E-16 ) ) ;
#37 = APPROVAL_ROLE ( '' ) ;
#38 = EDGE_LOOP ( 'NONE', ( #52 ) ) ;
#39 = APPROVAL ( #154, 'UNSPECIFIED' ) ;
#40 = CARTESIAN_POINT ( 'NONE',  ( 5.237222008264703188E-15, 1.887515091647312554E-16, 1.500000000000000888 ) ) ;
#41 = SECURITY_CLASSIFICATION ( '', '', #27 ) ;
#42 = FACE_OUTER_BOUND ( 'NONE', #23, .T. ) ;
#43 = DIRECTION ( 'NONE',  ( -3.491481338843133355E-15, -1.258343394431541045E-16, -1.000000000000000000 ) ) ;
#44 = ORIENTED_EDGE ( 'NONE', *, *, #149, .F. ) ;
#45 = AXIS2_PLACEMENT_3D ( 'NONE', #40, #163, #106 ) ;
#46 = CARTESIAN_POINT ( 'NONE',  ( 0.0000000000000000000, 0.0000000000000000000, 0.0000000000000000000 ) ) ;
#47 = AXIS2_PLACEMENT_3D ( 'NONE', #25, #158, #151 ) ;
#48 = LOCAL_TIME ( 13, 59, 39.00000000000000000, #33 ) ;
#49 = DIRECTION ( 'NONE',  ( 4.393482479514249676E-31, -1.000000000000000000, 1.258343394431541045E-16 ) ) ;
#50 = DIRECTION ( 'NONE',  ( 1.000000000000000000, 0.0000000000000000000, 0.0000000000000000000 ) ) ;
#51 = CARTESIAN_POINT ( 'NONE',  ( 1.098370619878562156E-30, 2.500000000000000444, 3.145858486078851874E-16 ) ) ;
#52 = ORIENTED_EDGE ( 'NONE', *, *, #17, .F. ) ;
#53 = APPROVAL_DATE_TIME ( #26, #39 ) ;
#54 = ADVANCED_BREP_SHAPE_REPRESENTATION ( '40710', ( #119, #29 ), #164 ) ;
#55 = APPROVAL_DATE_TIME ( #161, #57 ) ;
#56 = PRODUCT ( '40710', '40710', '', ( #64 ) ) ;
#57 = APPROVAL ( #137, 'UNSPECIFIED' ) ;
#58 = PERSON_AND_ORGANIZATION ( #88, #148 ) ;
#59 = AXIS2_PLACEMENT_3D ( 'NONE', #34, #131, #146 ) ;
#60 = CARTESIAN_POINT ( 'NONE',  ( 5.237222008264700822E-15, 2.500000000000003997, 1.500000000000000222 ) ) ;
#61 = CARTESIAN_POINT ( 'NONE',  ( 0.0000000000000000000, 2.500000000000000444, 0.0000000000000000000 ) ) ;
#62 = DIRECTION ( 'NONE',  ( -4.393482479514249676E-31, 1.000000000000000000, -1.258343394431541045E-16 ) ) ;
#63 = CC_DESIGN_PERSON_AND_ORGANIZATION_ASSIGNMENT ( #90, #3, ( #24 ) ) ;
#64 = MECHANICAL_CONTEXT ( 'NONE', #107, 'mechanical' ) ;
#65 = ORIENTED_EDGE ( 'NONE', *, *, #127, .T. ) ;
#66 = DATE_TIME_ROLE ( 'classification_date' ) ;
#67 = ADVANCED_FACE ( 'NONE', ( #128, #169 ), #16, .T. ) ;
#68 = COORDINATED_UNIVERSAL_TIME_OFFSET ( 1, 0, .AHEAD. ) ;
#69 = CIRCLE ( 'NONE', #45, 7.500000000000000000 ) ;
#70 = CARTESIAN_POINT ( 'NONE',  ( 0.0000000000000000000, 0.0000000000000000000, 0.0000000000000000000 ) ) ;
#71 = CC_DESIGN_APPROVAL ( #39, ( #24 ) ) ;
#72 = FACE_OUTER_BOUND ( 'NONE', #118, .T. ) ;
#73 = APPROVAL_ROLE ( '' ) ;
#74 = CARTESIAN_POINT ( 'NONE',  ( 5.237222008264699244E-15, 2.500000000000003997, 1.499999999999999778 ) ) ;
#75 = CALENDAR_DATE ( 2021, 6, 12 ) ;
#76 = PERSON_AND_ORGANIZATION ( #88, #148 ) ;
#77 = DIRECTION ( 'NONE',  ( -3.491481338843133355E-15, -1.258343394431541045E-16, -1.000000000000000000 ) ) ;
#78 = CC_DESIGN_PERSON_AND_ORGANIZATION_ASSIGNMENT ( #157, #28, ( #24 ) ) ;
#79 = AXIS2_PLACEMENT_3D ( 'NONE', #36, #117, #155 ) ;
#80 = CARTESIAN_POINT ( 'NONE',  ( 0.0000000000000000000, 0.0000000000000000000, 0.0000000000000000000 ) ) ;
#81 = PERSON_AND_ORGANIZATION ( #88, #148 ) ;
#82 = PLANE ( 'NONE',  #104 ) ;
#83 = DIRECTION ( 'NONE',  ( 3.491481338843133355E-15, 1.258343394431541045E-16, 1.000000000000000000 ) ) ;
#84 = LOCAL_TIME ( 13, 59, 39.00000000000000000, #2 ) ;
#85 = CIRCLE ( 'NONE', #59, 2.500000000000003997 ) ;
#86 = APPROVAL_PERSON_ORGANIZATION ( #76, #57, #6 ) ;
#87 =( LENGTH_UNIT ( ) NAMED_UNIT ( * ) SI_UNIT ( .MILLI., .METRE. ) );
#88 = PERSON ( 'UNSPECIFIED', 'UNSPECIFIED', 'UNSPECIFIED', ('UNSPECIFIED'), ('UNSPECIFIED'), ('UNSPECIFIED') ) ;
#89 = FACE_OUTER_BOUND ( 'NONE', #167, .T. ) ;
#90 = PERSON_AND_ORGANIZATION ( #88, #148 ) ;
#91 = DIRECTION ( 'NONE',  ( -4.393482479514249676E-31, 1.000000000000000000, -1.258343394431540799E-16 ) ) ;
#92 = FACE_OUTER_BOUND ( 'NONE', #136, .T. ) ;
#93 = CC_DESIGN_DATE_AND_TIME_ASSIGNMENT ( #112, #123, ( #95 ) ) ;
#94 = DIRECTION ( 'NONE',  ( -4.393482479514249676E-31, 1.000000000000000000, -1.258343394431541045E-16 ) ) ;
#95 = PRODUCT_DEFINITION ( 'UNKNOWN', '', #24, #132 ) ;
#96 = CALENDAR_DATE ( 2021, 6, 12 ) ;
#97 = CALENDAR_DATE ( 2021, 6, 12 ) ;
#98 = CC_DESIGN_APPROVAL ( #35, ( #95 ) ) ;
#99 = CARTESIAN_POINT ( 'NONE',  ( 5.237222008264700033E-15, 7.500000000000000000, 1.500000000000000000 ) ) ;
#100 = APPROVAL_PERSON_ORGANIZATION ( #58, #39, #73 ) ;
#101 = APPROVAL_STATUS ( 'not_yet_approved' ) ;
#102 = UNCERTAINTY_MEASURE_WITH_UNIT (LENGTH_MEASURE( 1.000000000000000082E-05 ), #87, 'distance_accuracy_value', 'NONE');
#103 = PERSON_AND_ORGANIZATION ( #88, #148 ) ;
#104 = AXIS2_PLACEMENT_3D ( 'NONE', #60, #83, #49 ) ;
#105 = ORIENTED_EDGE ( 'NONE', *, *, #149, .T. ) ;
#106 = DIRECTION ( 'NONE',  ( -4.108650548026103445E-31, 1.000000000000000000, -1.156482317317871478E-16 ) ) ;
#107 = APPLICATION_CONTEXT ( 'configuration controlled 3d designs of mechanical parts and assemblies' ) ;
#108 = COORDINATED_UNIVERSAL_TIME_OFFSET ( 1, 0, .AHEAD. ) ;
#109 = CLOSED_SHELL ( 'NONE', ( #7, #67, #138, #130 ) ) ;
#110 = APPLICATION_PROTOCOL_DEFINITION ( 'international standard', 'config_control_design', 1994, #122 ) ;
#111 = CC_DESIGN_APPROVAL ( #57, ( #41 ) ) ;
#112 = DATE_AND_TIME ( #96, #48 ) ;
#113 = VERTEX_POINT ( 'NONE', #74 ) ;
#114 = CC_DESIGN_PERSON_AND_ORGANIZATION_ASSIGNMENT ( #31, #150, ( #41 ) ) ;
#115 = VERTEX_POINT ( 'NONE', #13 ) ;
#116 = EDGE_LOOP ( 'NONE', ( #44 ) ) ;
#117 = DIRECTION ( 'NONE',  ( -3.491481338843133355E-15, -1.258343394431541045E-16, -1.000000000000000000 ) ) ;
#118 = EDGE_LOOP ( 'NONE', ( #160 ) ) ;
#119 = MANIFOLD_SOLID_BREP ( 'Corps-Déplacer/Copier1', #109 ) ;
#120 = CALENDAR_DATE ( 2021, 6, 12 ) ;
#121 = ORIENTED_EDGE ( 'NONE', *, *, #166, .F. ) ;
#122 = APPLICATION_CONTEXT ( 'configuration controlled 3d designs of mechanical parts and assemblies' ) ;
#123 = DATE_TIME_ROLE ( 'creation_date' ) ;
#124 = CC_DESIGN_DATE_AND_TIME_ASSIGNMENT ( #162, #66, ( #41 ) ) ;
#125 = CIRCLE ( 'NONE', #79, 7.500000000000000000 ) ;
#126 = PERSON_AND_ORGANIZATION_ROLE ( 'design_owner' ) ;
#127 = EDGE_CURVE ( 'NONE', #145, #145, #69, .T. ) ;
#128 = FACE_OUTER_BOUND ( 'NONE', #133, .T. ) ;
#129 = CC_DESIGN_SECURITY_CLASSIFICATION ( #41, ( #24 ) ) ;
#130 = ADVANCED_FACE ( 'NONE', ( #42, #92 ), #152, .F. ) ;
#131 = DIRECTION ( 'NONE',  ( -3.491481338843133355E-15, -1.258343394431541045E-16, -1.000000000000000000 ) ) ;
#132 = DESIGN_CONTEXT ( 'detailed design', #122, 'design' ) ;
#133 = EDGE_LOOP ( 'NONE', ( #65 ) ) ;
#134 = LOCAL_TIME ( 13, 59, 39.00000000000000000, #68 ) ;
#135 = SHAPE_DEFINITION_REPRESENTATION ( #140, #54 ) ;
#136 = EDGE_LOOP ( 'NONE', ( #121 ) ) ;
#137 = APPROVAL_STATUS ( 'not_yet_approved' ) ;
#138 = ADVANCED_FACE ( 'NONE', ( #153, #72 ), #82, .T. ) ;
#139 = AXIS2_PLACEMENT_3D ( 'NONE', #51, #10, #62 ) ;
#140 = PRODUCT_DEFINITION_SHAPE ( 'NONE', 'NONE',  #95 ) ;
#141 = PLANE ( 'NONE',  #139 ) ;
#142 =( NAMED_UNIT ( * ) PLANE_ANGLE_UNIT ( ) SI_UNIT ( $, .RADIAN. ) );
#143 = PERSON_AND_ORGANIZATION ( #88, #148 ) ;
#144 = LOCAL_TIME ( 13, 59, 39.00000000000000000, #168 ) ;
#145 = VERTEX_POINT ( 'NONE', #99 ) ;
#146 = DIRECTION ( 'NONE',  ( -3.081487911019572548E-31, 1.000000000000000000, -8.673617379884021914E-17 ) ) ;
#147 = AXIS2_PLACEMENT_3D ( 'NONE', #80, #77, #91 ) ;
#148 = ORGANIZATION ( 'UNSPECIFIED', 'UNSPECIFIED', '' ) ;
#149 = EDGE_CURVE ( 'NONE', #115, #115, #125, .T. ) ;
#150 = PERSON_AND_ORGANIZATION_ROLE ( 'classification_officer' ) ;
#151 = DIRECTION ( 'NONE',  ( -4.393482479514249676E-31, 1.000000000000000000, -1.258343394431540799E-16 ) ) ;
#152 = CYLINDRICAL_SURFACE ( 'NONE', #20, 2.500000000000002220 ) ;
#153 = FACE_BOUND ( 'NONE', #19, .T. ) ;
#154 = APPROVAL_STATUS ( 'not_yet_approved' ) ;
#155 = DIRECTION ( 'NONE',  ( -4.393482479514249676E-31, 1.000000000000000000, -1.258343394431540799E-16 ) ) ;
#156 = VERTEX_POINT ( 'NONE', #61 ) ;
#157 = PERSON_AND_ORGANIZATION ( #88, #148 ) ;
#158 = DIRECTION ( 'NONE',  ( -3.491481338843133355E-15, -1.258343394431541045E-16, -1.000000000000000000 ) ) ;
#159 = CC_DESIGN_PERSON_AND_ORGANIZATION_ASSIGNMENT ( #81, #21, ( #95 ) ) ;
#160 = ORIENTED_EDGE ( 'NONE', *, *, #127, .F. ) ;
#161 = DATE_AND_TIME ( #120, #30 ) ;
#162 = DATE_AND_TIME ( #75, #134 ) ;
#163 = DIRECTION ( 'NONE',  ( -3.491481338843133355E-15, -1.258343394431541045E-16, -1.000000000000000000 ) ) ;
#164 =( GEOMETRIC_REPRESENTATION_CONTEXT ( 3 ) GLOBAL_UNCERTAINTY_ASSIGNED_CONTEXT ( ( #102 ) ) GLOBAL_UNIT_ASSIGNED_CONTEXT ( ( #87, #142, #9 ) ) REPRESENTATION_CONTEXT ( 'NONE', 'WORKASPACE' ) );
#165 = DIRECTION ( 'NONE',  ( 0.0000000000000000000, 0.0000000000000000000, 1.000000000000000000 ) ) ;
#166 = EDGE_CURVE ( 'NONE', #113, #113, #85, .T. ) ;
#167 = EDGE_LOOP ( 'NONE', ( #105 ) ) ;
#168 = COORDINATED_UNIVERSAL_TIME_OFFSET ( 1, 0, .AHEAD. ) ;
#169 = FACE_OUTER_BOUND ( 'NONE', #116, .T. ) ;
ENDSEC;
END-ISO-10303-21;
